» » »

Kate Mcgill, Cursed Chords (ver.1)

Artists:  A B C D E F G H I J K L M N O P Q R S T U V W X Y Z # 

Cursed Chords (ver.1)

Kate Mcgill Tabs
 Rating:
4.3/5 (6 votes)
Cursed lessons Tabs too difficult? Try these video lessons and learn fast
1
                
I'm 99% sure this is all correct! The chords definitely are, but for the intro it 
was a bit harder to get the exact notes.
Anyway, Enjoy :)


Intro/Verse



e|--------------------------------------------------------------------------|
B|--------------------------------------------------------------------------|
G|----0--------0-------0-------0---------4-------4-------4-------4----------|
D|--4----4-4-4---4-4-4---4-4-4---4-4---5---5-5-5---5-5-5---5-5-5---5-5------|
A|-5-5--5-5-5-5-5-5-5-5-5-5-5-5-5-5---3-3-3-3-3-3-3-3-3-3-3-3-3-3-3-3-------|
E|--------------------------------------------------------------------------|

OR.. depending on how you want to play. They're both the same notes.

e|--------------------------------------------------------------------------|
B|---------------------------------------0-------0-------0-------0----------|
G|----0--------0-------0-------0-------0---0-0-0---0-0-0---0-0-0---0-0------|
D|--4----4-4-4---4-4-4---4-4-4---4-4----------------------------------------|
A|-5-5--5-5-5-5-5-5-5-5-5-5-5-5-5-5---3-3-3-3-3-3-3-3-3-3-3-3-3-3-3-3-------|
E|--------------------------------------------------------------------------|


Verse 1: (play intro/verse 3 times)

I feel numb

I've realised you're not the body I knew once

You're on top

But on the outside you are everything I'm not

But if I (but if I) 

Let you take another toll I'll lose control


Chorus:
Em                                    G            C
Can't take it in, refuse to let you through to my skin
                                     G       D      Em
Won't take it in, your breath won't let me breathe in
                                             G      C
I'm wearing thin, you've worn me down, I've let you in
                                     G       D
Won't take it in, your breath won't let me breathe
G         D       C            Em    G
In comes all the hurt, push it out
      D         Em
I think I'm cursed


Verse 2: (play intro/verse 3 times)

So now

You've gone and cut the strings that held us into place

Even though

A place so hard to find should never feel unsafe

It couldn't be

A more frustrating situation to be in


Chorus:
Em                                    G            C
Can't take it in, refuse to let you through to my skin
                                     G       D      Em
Won't take it in, your breath won't let me breathe in
                                             G      C
I'm wearing thin, you've worn me down, I've let you in
                                     G       D
Won't take it in, your breath won't let me breathe
G         D       C            Em    G
In comes all the hurt, push it out
      D         Em
I think I'm cursed


(repeat first part of chorus twice)


Chorus:
Em                                    G            C
Can't take it in, refuse to let you through to my skin
                                     G       D      Em
Won't take it in, your breath won't let me breathe in
                                             G      C
I'm wearing thin, you've worn me down, I've let you in
                                     G       D
Won't take it in, your breath won't let me breathe
G         D       C            Em    G
In comes all the hurt, push it out
      D         Em
I think I'm cursed


repeat chorus chords until the end fades out :)
            
Submit corrections

comments powered by Disqus
↑ Back to top | Kate Mcgill Chords for Cursed. Lyrics for acoustic guitar and electric guitar. 1 Tablatures and chords are parodies/interpretations of the original songs. You may use it for private study, scholarship, research or language learning purposes only