» » »

Katchafire, Frisk Me Down Bass tabs (ver.1)

Artists:  A B C D E F G H I J K L M N O P Q R S T U V W X Y Z # 

Frisk Me Down Bass tabs (ver.1)

Katchafire Tabs
 Rating:
4/5 (4 votes)
Frisk Me Down lessons Tabs too difficult? Try these video lessons and learn fast
                Katchafire
Slow Burning
Ara Adams - Tamatea

Intro
G|--------------|
D|--------------|
A|--------------|
E|5-5-5-3-3-6-5-|

Main riff
G|-----------------------|--------------------------|
D|---------3-------------|-----------3--------------|
A|-------6--6-5-5-3-6-55-|---------6---6-5-5-3-6-55-|
E|5----5----------------3|-3--5---5----------------3|

Interlude

G|---------------------|
D|---------------------|
A|---------------------|
E|5-6-5-0-3-5-3--66-5-3|

hope you enjoy...found this tab thought i'd share it..keep da fiyah burnin in your sOuL!
            
Submit corrections

comments powered by Disqus
↑ Back to top | Katchafire Bass for Frisk Me Down. Lyrics for acoustic guitar and electric guitar. Tablatures and chords are parodies/interpretations of the original songs. You may use it for private study, scholarship, research or language learning purposes only