» » »

Katchafire, Frisk Me Down Tabs (ver.1)

Artists:  A B C D E F G H I J K L M N O P Q R S T U V W X Y Z # 

Frisk Me Down Tabs (ver.1)

Katchafire Tabs
 Rating:
4/5 (4 votes)
Frisk Me Down lessons Tabs too difficult? Try these video lessons and learn fast
                Well this is my first time tabbing, so please go easy on me..
lol

"~" = Ring

Intro:

G|----------------|----------------|
D|----------------|----------------|
A|----------3~0~--|3-3-3-2-2-3~0~--|
E|5-5-5-3-3-------|----------------|
This is Played After the Drum roll..(Obviously..lol)

Main Riff (Verse/Chorus/Lead):

G|---------------------------------|
D|--------5------------------------|
A|----5-7---7---7-5---5------------|
E|5~----------------8---8-5~---3~--|
Well, this is the part that's gonna be played most of the time..^^

Pre-Chorus (or Something):

G|---------------|-----------------|
D|---------------|-----------------|
A|--3-------3----|3-3--------------|
E|5---5-3-5---5--|----5-3~---------|
This part is the "Dema do a Everything, in the Powah" Part

there are some parts thats kinda different.. all i can suggest is play what you feel..^^

Ok..Thats it, its Pretty Simple once you get the hang of it.
...CD-Gong...
Keep Skankin'
            
Submit corrections

comments powered by Disqus
↑ Back to top | Katchafire Tabs for Frisk Me Down. Lyrics for acoustic guitar and electric guitar. Tablatures and chords are parodies/interpretations of the original songs. You may use it for private study, scholarship, research or language learning purposes only