» » »

Kataklysm, Taking The World By Storm Tabs (ver.1)

Artists:  A B C D E F G H I J K L M N O P Q R S T U V W X Y Z # 

Taking The World By Storm Tabs (ver.1)

Kataklysm Tabs
 Rating:
4/5 (4 votes)
Taking The World By Storm lessons Tabs too difficult? Try these video lessons and learn fast
                
I know this is played 2.5 steps down, but im tabbing it in standard for your convenience.

E||---------------------------------------------------------------|
B||---------------------------------------------------------------|
G||---------------------------------------------------------------| (x4)
D||---------------------------------------------------------------|
A||-5-----7-----9-------10--9-------5-----7-----4-------4-5-------|
E||-0-0-0-0-0-0-0-0-0-0-0-0-0-0-0-0-0-0-0-0-0-0-0-0-0-0-0-0-0-0-0-|
      . .   . .   . . .   .   . . .   . .   . .   . . .     . . .

E||-----------------------------------|
B||-----------------------------------|
G||-----------------------------------| (x4)
D||-----------------------------------|
A||-----------------------------------|
E||-3p0-0-0-0-0-3p0-0-6-6-6-6-6-6-5-5-|
        . . . .     . . . . . . . . .

E||------------------------------------------------------------------------------|
B||------------------------------------------------------------------------------|
G||------------------------------------------------------------------------------|
D||---------------------------------------------------------55554442227777555444-| (x2)
A||-22224444555777777----------------------22224444555777777---------------------|
E||-------------------44446666333444333111---------------------------------------|


E||-----------------------------------------------------------------|
B||-----------------------------------------------------------------|
G||-----------------------------------------------------------------| (x4)
D||-----------------------------------------------------------------|
A||-0-------5-4-0-4-2---------------0-------5-4-0-4-2---------------|
E||-0-0-0-0-----------0-0-0-0-0-0-0-0-0-0-0-----------4-4-4-1-1-1-1-|
      . . .           . . . . . . .   . . .           . . .   . . .


E||---------------------------------------------------------------|
B||---------------------------------------------------------------|
G||---------------------------------------------------------------| (x4)
D||---------------------------------------------------------------|
A||-5-----7-----9-------10--9-------5-----7-----4-------4-5-------|
E||-0-0-0-0-0-0-0-0-0-0-0-0-0-0-0-0-0-0-0-0-0-0-0-0-0-0-0-0-0-0-0-|
      . .   . .   . . .   .   . . .   . .   . .   . . .     . . .

E||-----------------------------------|
B||-----------------------------------|
G||-----------------------------------| (x4)
D||-----------------------------------|
A||-----------------------------------|
E||-3p0-0-0-0-0-3p0-0-6-6-6-6-6-6-5-5-|
        . . . .     . . . . . . . . .

E||------------------------------------------------------------------------------|
B||------------------------------------------------------------------------------|
G||------------------------------------------------------------------------------|
D||---------------------------------------------------------55554442227777555444-| (x2)
A||-22224444555777777----------------------22224444555777777---------------------|
E||-------------------44446666333444333111---------------------------------------|


E||-----------------------------------------------------------------|
B||-----------------------------------------------------------------|
G||-----------------------------------------------------------------| (x4)
D||-----------------------------------------------------------------|
A||-0-------5-4-0-4-2---------------0-------5-4-0-4-2---------------|
E||-0-0-0-0-----------0-0-0-0-0-0-0-0-0-0-0-----------4-4-4-1-1-1-1-|
      . . .           . . . . . . .   . . .           . . .   . . .

E||-------------------------------------------------------------------------|
B||-------------------------------------------------------------------------|
G||-------------------------------------------------------------------------|
D||-------------------------------------------------------------------------|
A||-10-10-10-10-10-10-10-10-7-7-7-7-7-7-7-7-9-9-9-9-9-9-9-9-5-5-5-5-5-5-5-5-|
E||-------------------------------------------------------------------------|


solo:

E||-------------------------------------------------------------------------------|
B||-------------------------------------------------------------------------------|
G||-------------------------------------------------------------------------------|
D||-9-------9-------9----5-----5-----5---7-----7-----7---9-7h9p7------7-5h7p5-----|
A||---10-10---10-10---10---7-7---7-7---7---9-9---9-9---9---------10-9---------9-7-|
E||-------------------------------------------------------------------------------|


E||-------------------------------------------------------------------------------|
B||-------------------------------------------------------------------------------|
G||-------------------------------------------------------------------------------|
D||-9-------9-------9----5-----5-----5-------------------7------7-9----7-9-10-5-4-|
A||---10-10---10-10---10---7-7---7-7---7---7-9-10-7-9-10---9-10-----10------------|
E||--------------------------------------8----------------------------------------|
                                         .        .


play till end:

E||-----------------------------------------------------------------|
B||-----------------------------------------------------------------|
G||-----------------------------------------------------------------|
D||-----------------------------------------------------------------|
A||-0-------5-4-0-4-2---------------0-------5-4-0-4-2---------------|
E||-0-0-0-0-----------0-0-0-0-0-0-0-0-0-0-0-----------4-4-4-1-1-1-1-|
      . . .           . . . . . . .   . . .           . . .   . . .
            
Submit corrections

comments powered by Disqus
↑ Back to top | Kataklysm Tabs for Taking The World By Storm. Lyrics for acoustic guitar and electric guitar. Tablatures and chords are parodies/interpretations of the original songs. You may use it for private study, scholarship, research or language learning purposes only