» » »

Kataklysm, Ambassador Of Pain Tabs (ver.2)

Artists:  A B C D E F G H I J K L M N O P Q R S T U V W X Y Z # 

Ambassador Of Pain Tabs (ver.2)

Kataklysm Tabs
Rating:
0/5 (0 votes)
Ambassador Of Pain lessons Tabs too difficult? Try these video lessons and learn fast
                --- KATAKLYSM ---
                          "The Ambassador Of Pain"
                     
                     

                            TABULATURE LEGEND:
                   " - tremolo             h - hammer on           
                   ~ - vibrato             \ - slide down
                   p - pull off            / - slide down
                  tr - tremolo picking     ^ - pinch harmonics     
                   = - sustained note      b - bend string         
                p.m. - palm muting         t - tapping

TUNING: B [B, E, A, d, g, B]

[Intro]
|---------------------------|--------------------------|-
|---------------------------|--------------------------|-
|---------------------------|--------------------------|-
|---------------------------|-------------------1------|-
|-2--2--2--2--2--2--5-5-4-5-|-2--2--2--2--2--2--1------|-
|-0--0--0--0--0--0--3-3-2-3-|-0--0--0--0--0--0------0--|-
| .  .  .  .  .  .  . . . . | .  .  .  .  .  .      .  |
|---------------------------|--------------------------|-
|---------------------------|--------------------------|-
|---------------------------|--------------------------|-
|---------------------------|-------------------1------|-
|-2-----------------5-5-4-5-|-2-----------------1------|-
|-0-----------------3-3-2-3-|-0---------------------0--|-
  .                 . . . .   .                     .

-|---------------------------|----------------|
-|---------------------------|----------------|
-|---------------------------|----------------|
-|---------------------------|----------------|
-|-2--2--2--2--2--2--5-5-4-5-|-2---2-3--------|
-|-0--0--0--0--0--0--3-3-2-3-|-0---0-1--------|
 | .  .  .  .  .  .  . . . . | .   . .        |
-|---------------------------|----------------|
-|---------------------------|----------------|
-|---------------------------|----------------|
-|---------------------------|----------------|
-|-2-----------------5-5-4-5-|-2---2-3--------|
-|-0-----------------3-3-2-3-|-0---0-1--------|
   .                 . . . .   .   . .

[Riff 1 (x2)]
||----------------------------------|----------------------------------||
||o---------------------------------|---------------------------------o||
||----------------------------------|----------------------------------||
||----------------------------------|----------------------------------||
||o-------------------------2-------|-------------------------2-------o||
||--0-1-0-1-3-1-0-1-0-1-0-1---1-0-1-|-0-1-0-1-3-1-0-1-0-1-0-1---3-1-3--||

[Riff 2 (x4)]
||------------------------------|---------------------------------||
||o-----------------------------|--------------------------------o||
||------------------------------|---------------------------------||
||------------------------------|---------------------------------||
||o--------3---5---------3---5--|--------3---5--7777775588888877-o||
||--0-0--0-1-0-3--0-0--0-1-0-3--|-0-0--0-1-0-3--------------------||
    . .  . . .    . .  . . .      . .  . . .

[Riff 3 (x4)]
||------------------------------------||
||o----------------------------------o||
||------------------------------------||
||-----------------5------------------||
||o-2--3--5--2--3--3--2--3--6--5--3--o||
||--0--1--3--0--1-----0--1--4--3--1---||

[Outro A]
|---------------------------|--------------------------|-
|---------------------------|--------------------------|-
|---------------------------|--------------------------|-
|---------------------------|-------------------1------|-
|-2--2--2--2--2--2--5-5-4-5-|-2--2--2--2--2--2--1------|-
|-0--0--0--0--0--0--3-3-2-3-|-0--0--0--0--0--0------0--|-
  .  .  .  .  .  .  . . . .   .  .  .  .  .  .      . 

-|---------------------------|----------------|
-|---------------------------|----------------|
-|---------------------------|----------------|
-|---------------------------|----------------|
-|-2--2--2--2--2--2--5-5-4-5-|-2---2-3--------|
-|-0--0--0--0--0--0--3-3-2-3-|-0---0-1--------|
   .  .  .  .  .  .  . . . .   .   . .

[RIFF 1 (x2)] [RIFF 2 (x4)]

[Outro B]
|---------------------------------------------|
|---------------------------------------------|
|---------------------------------------------|
|-2=========================================--|
|-2=========================================--|
|-0=========================================--|

[Riff 4 (x8)]
||---------------------------------||
||o-------------------------------o||
||---------------------------------||
||---------------------------------||
||o---3-5-3-6\5---3---5-----3/5-6-o||
||--0-1-3-1-4\3-0-1-0-3-0-0-1/3-4--||
    . . . .     .   .   . .

[RIFF 3 (x4)] /break/ [RIFF 1 (x2)] [RIFF 4 (x4)]

END OF SONG
            

comments powered by Disqus
↑ Back to top | Kataklysm Tabs for Ambassador Of Pain. Lyrics for acoustic guitar and electric guitar. Tablatures and chords are parodies/interpretations of the original songs. You may use it for private study, scholarship, research or language learning purposes only