» » »

Kashmir, Travelouge Tabs (ver.1)

Artists:  A B C D E F G H I J K L M N O P Q R S T U V W X Y Z # 

Travelouge Tabs (ver.1)

Kashmir Tabs
Rating:
0/5 (0 votes)
Travelouge lessons Tabs too difficult? Try these video lessons and learn fast
                INTRO / VERS                  intro-sl*tning    vers-sl*tning
   E5  H   G   C6   Am7  H7                     Em  Esus2     Cb5  Hsus  H
e--7---7---3---5----5----5--  3--3-5-2-5-3-5-2  3---2------3--2----2-----2
h--5---4---3---5----5----4--  5--5---5---5---5  5---5------5--5----5-----4
g--4---4---4---5----5----4--  4--4---4---4---4  4---4------4--5----4-----4
d-----(4)-(5)-(5)--(7)--(4)-  ----------------  --------------------------
a---------------------------  ----------------  --------------------------
e---------------------------  ----------------  --------------------------
   Pouring up the wine... 
BRIDGE 1        mellem-spil    1. sl*tning        2. sl*tning
   Am  H7       Em  Esus2  Em  Em     Hm  Am  H7               
e--5---5-  -g-  3---2------3-  3---2--2---5---5-  3--2--2--5--5--5--2--3--2
h--5---4-  -e-  5---5------5-  5---5--3---5---4-  5--5--3--5--8--7--5--5--4
g--5---4-  -n-  4---4------4-  4---4--4---5---4-  4--4--4--5--5--5--5--4--4
d--7---4-  -t-  -------------  -----------7---4-  ---------7--7--7---------
a--------  -a-  -------------  -----------------  -------------------------
e--------  -g-  -------------  -----------------  -------------------------
   Gathering...
OMKVÆD
   E  C#m  H  G#m  C#sus  C#m  Dsus2  Asus2  E  C#m  H  G#m  C#sus  C#m
e--0--4----2--4----4------4----5------0------0--4----2--4----4------4--
h--0--5----4--4----7------5----5------0------0--5----4--4----7------5--
g--1--6----4--4----6------6----7------2------1--6----4--4----6------6--
d--2--6----4--6----6------6----7------2------2--6----4--6----6------6--
a--2--4----2--6----4------4----5------0------2--4----2--6----4------4--
e--0----------4------------------------------0----------4--------------
   In this travelogue... 
BRIDGE 2
   ( ikke med på pladen, men lyder fedt: )
e-------------------------------------------  --7--7---7--12--  -g-
h--5--5--5----------------------------------  --7--7---7--12--  -e-
g--4--4--4--4--4--4--4--4-----------4--4--4-  --9--9---9---9--  -n-
d--7--6--4--4--4--4--4--2--2--2--2--4--2--4-  --9--9---9---9--  -t-
a-----------7--6--4--2--0--2--2--2--6--4--2-  --7--9--10--12--  -a-
e--------------------------4--2--0----------  ----------------  -g-
   Since the day...
B-STYKKE
   Cdim Adim F#dim D#dim Cdim Em6/9       Adim H Adim Cmaj7b5 Hsus H
e--11---8----5-----2----------2----  -g-  8----7-8-----7-------7---7
h--10---7----4-----1-----4----2----  -e-  7----7-7-----7-------7---7
g--11---8----5-----2-----2----0----  -n-  8----8-8-----9-------9---8
d--10---7----4-----1-----4----2----  -t-  7----9-7----10-------9---9
a------------------------3----2----  -a-  -----9--------------(9)--9
e-----------------------------0----  -g-  -----7------(8)-----(7)--7
   All I ever wanted...
OUTRO
   E   H   G   C6  Am  Hm  E   H   G    Cmaj7b5  Hsus  H     C6
e--0-----------5---5---7-------------  -------------------  -5--
h--0-----------5---5---7-------------  -5--------5-----4--  -5--
g--4---4-------5---5---7-------4-----  -4--------4-----4--  -5--
d--2---4---5---5---7---9---2---4---5-  -4--------4-----4--  -5--
a--2---2---5---3---7---9---2---2---5-  -3--------2-----2--  -3--
e--0-------3-------5---7---0-------3-  -------------------  ----
            

comments powered by Disqus
↑ Back to top | Kashmir Tabs for Travelouge. Lyrics for acoustic guitar and electric guitar. Tablatures and chords are parodies/interpretations of the original songs. You may use it for private study, scholarship, research or language learning purposes only