» » »

Time Has Deserted Us Tabs (ver.1)

Artists:  A B C D E F G H I J K L M N O P Q R S T U V W X Y Z # 

Time Has Deserted Us Tabs (ver.1)

Kashmir
Rating:
0/5 (0 votes)

Tabs too difficult? Try these video lessons and learn fast.
                    _________________________
   / Kashmir                /
  / time has desterted us  /
 / TRESPASSERS            /
/________________________/

It is very hard to decide, which picking pattern was the exact basic idea.
Since this is picked rather fast and with a pick, Kasper constantly hits
notes that don't fit into a specific pattern. But just take it from here.
You will end up doing that as well, and it will sound perfectly fine! :D

Capo on 2. fret
--------------------------------------------------------------------------------


 Intro:
play this round 2x

  Esus2                               C6(#11)
|-------0---------|-------0---------|-------0---------|-------0---------|
|---3-------3-----|---3-------3-----|-----------3-----|-----------3-----|
|---------------2-|---------------2-|---0-----------0-|---0-----------0-|
|-0---0---0---0---|-0---0---0---0---|-----3-------3---|-----3-------3---|
|-----------------|-----------------|-1---1---1---1---|-1---1---1---1---|
|-----------------|-----------------|-----------------|-----------------|

  Am6                                 C6(#11)
|-------0---------|-------0---------|-------0---------|-------1p0-------|
|-----------3-----|-----------3-----|-----------3-----|-----------3---3-|
|---3-----------3-|---3-----------3-|---0-----------0-|---0-------------|
|-----------------|-----------------|-----3---3---3---|-----3-----------|
|-----1---1---1---|-----1---1---1---|-1---------------|-1-----------1---|
|-3---------------|-3---------------|-----------------|-----------------|




 Verse:
play the round 4x
Also, here he plays a few cool variations in the last bar and last two bars:

   C6(#11) D             C6(#11)           C6(#11) D   Esus2
 |-------0-------0-|   |-------0---------|---------------0-|
 |-----------------|   |-----------3-----|-------3---------|
 |---0-------0-----|   |---0-----------0-|---0-------0-----|
 |-----3-------5---|   |-----3---3---3---|-----3-------0---|
 |-1-------3-------|   |-1---------------|-1-------3-------|
 |-----------------|   |-----------------|-----------------|




 Chorus:
  Gmaj7                               Bm
|-------0---------|-------0---------|-------0---------|-------0---------|
|-----------1-----|-----------1-----|-----------1-----|-----------1-----|
|---2-----------2-|---2-----------2-|---------------2-|---------------2-|
|-3---3---3---3---|-3---3---3---3---|---2---------2---|---2---------2---|
|-----------------|-----------------|-0---0---0-------|-0---0---0-------|
|-----------------|-----------------|-----------------|-----------------|

  Gmaj7                               Bm
|-------0---------|-------0---------|-------0-------3-|-------0---------|
|-----------1-----|-----------1-----|-----------1-----|-----------1-----|
|---2-----------2-|---2-----------2-|-----------------|---------------2-|
|-3---3---3---3---|-3---3---3---3---|---2---------2---|---2---------2---|
|-----------------|-----------------|-0---0---0-------|-0---0---0-------|
|-----------------|-----------------|-----------------|-----------------|

  Am                                  Am                Cm
|-----------------|-----------------|-----------------|-------1---------|
|-------3-------3-|-------3-------3-|-------3-------3-|-------2---------|
|---3-------3-----|---3-------3-----|---3-------3-----|-----------3-----|
|-----0-------0---|-----0-------0---|-----0-------0---|---3-----------3-|
|-----------------|-----------------|-----------------|-1---1---1---1---|
|-3-------3-------|-3-------3-------|-3-------3-------|-----------------|

(ending)
  G                                   G                 D/F#
|-------1---------|-------1---------|-------1---------|-------0---------|
|-----------1-----|-----------1-----|-----------1-----|-----------1-----|
|---2-----------2-|---2-----------2-|---2-----------2-|---0-----------0-|
|-3---3---3---3---|-3---3---3---3---|-3---3---3---3---|-2---2---2---2---|
|-----------------|-----------------|-----------------|-----------------|
|-----------------|-----------------|-----------------|-----------------|




 Verse: similar to previous




 2. Chorus: similar to previous, but with a new ending:

  G                                   G
|-------0---------|-------0---------|-------0---------|-------0---------|
|-----------1-----|-----------1-----|-----------1-----|-----------1-----|
|---2-----------2-|---2-----------2-|---2-----------2-|---2-----------2-|
|-3---3---3---3---|-3---3---3---3---|-3---3---3---3---|-3---3---3---3---|
|-----------------|-----------------|-----------------|-----------------|
|-----------------|-----------------|-----------------|-----------------|



 3. Chorus: similar to previous, and also with a new ending:

  Esus2             Em                Esus4
|-------0---------|-------1---------|-----------------|---3---1-------0-|
|---3-------3-----|---3-------3-----|-------3-------3-|---------------3-|
|---------------2-|---------------2-|---2-------0-----|-----------2-----|
|-0---0---0---0---|-0---0---0---0---|-0---0---0---0---|-0---0---0---0---|
|-----------------|-----------------|-----------------|-----------------|
|-----------------|-----------------|-----------------|-----------------|




 Finale:
play this round 4x

  D(add9)                             Am6
|-------0---------|-------0---------|-------0---------|-------0---------|
|-----------3-----|-----------3-----|-----------3-----|-----------3-----|
|---------------0-|---------------0-|---------------3-|---------------3-|
|---2-------------|---2-------------|---0-------------|---0-------------|
|-3---3---3---3---|-3---3---3---3---|-----1---1---1---|-----1---1---1---|
|-----------------|-----------------|-3---------------|-3---------------|

  C6(#11)                             F#o
|-------0---------|-------0---------|-------0---------|-------3---------|
|-----------3-----|-----------3-----|-----------2-----|-----------2-----|
|---0-----------0-|---0-----------0-|---0-----------0-|---0-----------0-|
|-----3---3---3---|-----3---3---3---|-2---2---2---2---|-2---2---2---2---|
|-1---------------|-1---------------|-----------------|-----------------|
|-----------------|-----------------|-----------------|-----------------|



 Outro:
  Esus2             Em                Esus4             Esus2
|-------0---------|-------1---------|-------3---------|-------0---------|
|---3-------3-----|---3-------3-----|-----------3-----|---3-------3-----|
|---------------2-|---------------2-|---2-----------2-|---------------2-|
|-0---0---0---0---|-0---0---0---0---|-0---0---0---0---|-0---0---0---0---|
|-----------------|-----------------|-----------------|-----------------|
|-----------------|-----------------|-----------------|-----------------|

  Em
|-^0h1------------:
|-^3--------------:
|-^2--------------:
|-^0--------------:
|-----------------:
|-----------------:



 LYRICS
**********
the coolest enemy
that i have ever seen
is humming of impending war
he slouches on the couch
and tramples on the vow
not to come here anymore

some persistent nerve
that he has got preserved
when i am all dry ice to touch
an unaffected smile
to add up to his pile
of insolence immaculate

time has deserted us
so have our days
the author has written us
out of his play
and without a sound
i'll gently vaporize

he is bringing drinks and talk
and chicken wings on fork
that dances in his master plan
and everything gets turned
like nothing's ever learned
the gates of hell unlock themselves


now what else could it be
when you face your enemy
still to soft shelled to withstand
this growing pressure balloon
is meant to crack up soon
the silence to be infinite

time has deserted us
so have our days
the author has written us
out of his play
and without a sound
i'll slowly glide away

I am not saying where i am headed
or where I will end
surely would regret it
i am not precious but well spent
and without a sound
i'll quickly vaporize

closed ends
past tense
dead friends
no offense


+--------------------------------------------------------------------------+
Jon Sebastian Frederiksen - 22nd /June /10
            
Tabs too difficult? Try these video lessons and learn fast.




comments powered by Disqus
↑ Back to top | Tablatures and chords are parodies/interpretations of the original songs. You may use it for private study, scholarship, research or language learning purposes only