>
 >
Surfing On The Warm Industry

Surfing On The Warm Industry Guitar Tabs

Kashmir - Surfing On The Warm Industry chords, tabs, tablatures, lyrics

Guitar lessons | Add/correct | Request | Top 50 tabs Artists:  A B C D E F G H I J K L M N O P Q R S T U V W X Y Z 0-9

Surfing On The Warm Industry Guitar Tabs – Kashmir

CD, Sheet music, Poster

Do you like Surfing On The Warm Industry? Share with your friends now
Tabs
SURFING THE WARM INDUSTRY (guitar-tabulatur) 

INTRO 

e--------------- -g- ------------------- -g- ------------------------------- 
h--------------- -e- ------------------- -e- ------------------------------- 
g--7--7--7--7--7 -n- --7---7---7---7---7 -n- --9--9--9--9--10-10-10-10-9-9-7 
d--------------- -t- ------------------- -t- ------------------------------- 
a-8--8--8--8--8- -a- 10--10--10--10--10- -a- -8--8--8--8--8--8--8--8--8----- 
e--------------- -g- ------------------- -g- ------------------------------- 
  
e--------------------------------- 
h--------------------------------- 
g---4---4--4--4--4--4--4--4--4--4- 
d--------------------------------- 
a--5-5-5--5--5--5--5--5--5--5--5-- 
e--------------------------------- 

VERS (spiller med fra vers 2) 

  Bb                 G                  Bb                 G 
e--------------- -g- -------------- -g- -------------- -g- ------------- -g- 
h--------------- -e- -------------- -e- -------------- -e- ------------- -e- 
g--7--7--7--7--7 -n- -4--4--4--4--4 -n- -7--7--7--7--7 -n- -4--4--4--4-- -n- 
d--------------- -t- -------------- -t- -------------- -t- ------------- -t- 
a-8--8--8--8--8- -a- 5--5--5--5--5- -a- 8--8--8--8--8- -a- 5--5--5--5--5 -a- 
e--------------- -g- -------------- -g- -------------- -g- ------------- -g- 
  cause baby you must be so fed up... 

OMKVÆD 

   E5         H/eb    C5     Am     G/h C    C  Em        Am    C    D 
e----------------------------0------------------0---------0-----0----2------ 
h----------------------------1----------1----1--0---------1-----1----3------ 
g--9----------8-------5------2------0---0----0--0---------2-----0----2------ 
d--------------------(5)-----2------0---2----2--2---------2-----2----0------ 
a--7----------6-------3------0------2---3----3--2---------0-----3----------- 
e-(0)--------(7)--------------------------------0--------------------------- 
  Itīs up to you... 

MELLEM-STK 

   Bb                          G 
e------------------------- -g- ----------------------- -g- 
h------------------------- -e- ----------------------- -e- 
g--7-7-7-7-7-7-7-7-9-9-9-7 -n- 4-4-4-4-4-4-4-4-5-5-5-7 -n- 
d------------------------- -t- ----------------------- -t- 
a--8-8-8-8-8-8-8-8-8-8-8-8 -a- 5-5-5-5-5-5-5-5-5-5-5-5 -a- 
e------------------------- -g- ----------------------- -g- 
   Go! 

OUTRO 

e------------------------- -g- ------------------------- -g- 
h------------------------- -e- ------------------------- -e- 
g--5-5-5-5-5---5-5-5-5-5-- -n- --2-2-2-2-2---2-2-2-2-2-- -n- 
d-(5-5-5-5-5)-(5-5-5-5-5)- -t- -(2-2-2-2-2)-(2-2-2-2-2)- -t- 
a-(5-5-5-5-5)-(5-5-5-5-5)- -a- -(2-2-2-2-2)-(2-2-2-2-2)- -a- 
e--6-6-6-6-6---6-6-6-6-6-- -g- --3-3-3-3-3---3-3-3-3-3-- -g- 
   Go! 

I think itīs something like that but if it isnīt, then please
Good luck!!





Comments


Popular Kashmir tabs & chords
Miss You Bass Tabs
Mouthful Of Wasps Chords
Piece Of The Sun Chords
Rocket Brothers 4 Chords
Splittet Til Atomer 1 Chords
Gorgeous 1 Tabs
Lampshade 1 Tabs
Rose 2 Tabs
Small Poem Of Old Friend Tabs
Vote 4 Dick Taid Tabs


Song lyrics



↑ Back to top | Tablatures and chords are parodies/interpretations of the original songs. You may use it for private study, scholarship, research or language learning purposes only
© 2014 AZChords.com Contact us | Privacy policy | DMCA | Add/correct tabs | Request tabs | Top 50 tabs