» » »

Kashmir, Rocket Brothers Chords (ver.4)

Artists:  A B C D E F G H I J K L M N O P Q R S T U V W X Y Z # 

Rocket Brothers Chords (ver.4)

Kashmir Tabs
Rating:
0/5 (0 votes)
Rocket Brothers  lessons Tabs too difficult? Try these video lessons and learn fast
                (4)
Tuning: capo on 2nd fret
Chords used:

G/B     x20033
Cmaj7   x32000

I play it with my right hand fingers and the hammer on 3 I play it with the left 
hand, and I make a nice combination of both guitars


Intro
E--0-0-0-0-0-0-0-0-0-0---0-0-0-0-0-0-0-0-0-0--0--0-----------------|
B-0-0-1-1-3-3-5-5-7-7---1-1-3-3-5-5-7-7-8-8-10-10------------------|
G------------------------------------------------------------------|
D------------------------------------------------------------------|
A------------------------------------------------------------------|
E------------------------------------------------------------------|
                                                       I miss you so much 
E--0-0-0-0-0-0-0-0-0-0---0-0-0-0-0-0-0-0-0-0--0--0-0-0-0-0-0-0-0---|
B-0-0-1-1-3-3-5-5-7-7---1-1-3-3-5-5-7-7-8-8-10-10-0-0-0-0-0-0-0----|
G------------------------------------------------------------------|
D------------------------------------------------------------------|
A-------------------------------------------------------H3---------|
E------------------------------------------------------------------|


Verse 1
Cmaj7
boy
G/B                     E
 Will we be coming on again
Em                     Am
 Don't ever lose your ropes

C                            G   D
 This man is hanging by the eee-ends
                   Bm
I owe you so much time
G                              Cmaj7  G/B   Am
 Yes you may say it isn't like that - at    all
               F
But now it's coming back to you
              D7
These open moments that I blew

Chorus
                           Bm
Rocket brothers crack and burst
C                              G
 If they can't meet upon the verge
Am                          Bm
 Of breaking into separate parts
C                             G    D
 That was not written in our caaa-ards
Dm                              Cmaj7
 Now you've got someone to protect
G                    Cmaj7 (sustain)
 Someone you cannot reject

Verse 2
                   Cmaj7
I miss you so much boy
G/B                        E
 But I was buried in the mines
Em                      Am
 I've found it hard to stop
C                              G    D
 You've found me very hard to fiii-ind
                         Bm
But now that you've made way
G                              Cmaj7   G/B  Am
 I'd better tie together these ropes - ag---ain
                F
And throw the times right back to you
               D7
And all the chances that I blew

Chorus
                           Bm
Rocket brothers crack and burst
C                              G
 If they can't meet upon the verge
Am                          Bm
 Of breaking into separate parts
C                             G    D
 That was not written in our caaa-ards
                              Bm
Those rocket brothers on the verge
C                                      G
 We should be careful cause it could burst
Am                     Bm
 Now were not lonely anymore
C                     G    D
 Lonely as we were befooo-ore
Dm                          Cmaj7
 And now there's someone to protect
G                          Cmaj7
 Someone you cannot reject
G                          Cmaj7
 Something I will not neglect
Cmaj7
No
            

comments powered by Disqus
↑ Back to top | Kashmir Chords for Rocket Brothers. Lyrics for acoustic guitar and electric guitar. Tablatures and chords are parodies/interpretations of the original songs. You may use it for private study, scholarship, research or language learning purposes only