>
 >
Prawns Blues

Prawns Blues Guitar Tabs

Kashmir - Prawns Blues chords, tabs, tablatures, lyrics

Guitar lessons | Add/correct | Request | Top 50 tabs Artists:  A B C D E F G H I J K L M N O P Q R S T U V W X Y Z 0-9

Prawns Blues Guitar Tabs – Kashmir

CD, Sheet music, Poster

Do you like Prawns Blues? Share with your friends now
Bass TabsTabs
-------------------------------------------------------------------------------
                             Prawn's Blue's - Kashmir
-------------------------------------------------------------------------------
this thing was really hard to put together, but here it is and i thank the band kashmir 
this song. its so f***ing goooooodddd..!Q!!

Tuning:
LIVE-INTRO (KBh´s hovedbanegård)

e---------------------------------------------------------------------|
h---------------------------------------------------------------------|
g---13-13^11---13-13^11--12-12-11-9-14-14-14-12-14-12-11---13-13^11---|
d---------------------------------------------------------------------|
a---11-11^9----11-11^9---10-10--9-7-12-12-12-10-12-10--9---11-11^9----|
e-0----------0-------------------------------------------0----------0-|

e---------------------------------------------------------------------|
h---------------------------------------------------------------------|
g---13^11--12-12-11-9-----------13^11---13-13^11--12-12-11-9-14-14^12-|
d---------------------9-7-7-6-----------------------------------------|
a---11^9---10-10--9-7-----------11^9----11-11^9---10-10--9-7-12-12^10-|
e-0-------------------7-5-5-4-0-------0-------------------------------|

e-------------------------------------|
h-------------------------------------|
g--14^12----16^14----19--16---11---8--|
d-------------------------------------|
a--12^10----14^12----17--14----9---6--|
e---------------------------------(7)-|

INTRO

e-------------------------------------------------| -g-  ved brug af whammy-pedal, pick
h---------------------- -e-  overtoner i 5. og 12-| bånd. for
g-------------------------------------------------| -n-  at lave de 'spacy' fills...
d---------------------- -t------------------------|
a---------------------- -a------------------------|
e--3-0--3--5--5^6--3-0- -g------------------------|

VERS
                                                          2 + 3]
e-------------------------------------------------------- ---------------------|
h-------------------------------------------------------- ---------------------|
g-------------------------------------------------------- ---------------------|
d----------------------------------------7-7-7-7-9-9-9-9- -10-10-10-10-9-9-9-9-|
a----------------------------------------7-7-7-7-9-9-9-9- -10-10-10-10-9-9-9-9-|
e--3-0--3--5--5^6--3-0---3-0--3--5--5^6--5-5-5-5-7-7-7-7- --8--8--8--8-7-7-7-7-|
   I am sleeping in the park...

TONZ (mellem-stk)             TONZ-OPGANG

e----------------------- -g-  ----------------------------------------|
h----------------------- -e-  ----------------------------------------|
g----------------------- -n-  ----------------------------------------|
d--5-2--5--7--8--9--5-2- -t-  -5-2--5--6--7--8--9--10--11--12--13--14-|
a--5-2--5--7--8--9--5-2- -a-  -5-2--5--6--7--8--9--10--11--12--13--14-|
e--3-0--3--5--6--7--3-0- -g-  -3-0--3--4--5--6--7---8---9--10--11--12-|
 ..in the mall...              It´s little and it´s pink and it...

OMKVÆD
                 1 + 2 + 3]                         4] (outro)
e-------------  ----------------------------------  -------------------------- -----|
h-------------  ----------------------------------  -------------------------- -----|
g-----6--5----  ----6--5--4-----------------------  ----6--5-----5-----------4 -----|
d--2--6--5--5-  -2--6--5--4--5-2--5--7--8--9--5-2-  -2--6--5--5--5--5--3--4--4 -5-2-|
a--2--4--3--5-  -2--4--3--2--5-2--5--7--8--9--5-2-  -2--4--3--5--3--5--3--4--2 -5-2-|
e--0--------3-  -0-----------3-0--3--5--6--7--3-0-  -0--------3-----3--1--2--- -3-0-|
   Goodbye my friends...

SOLO

e----------- ------------------------------------------------------------------|
h--5-------- ------------------12----------------------------------------------|
g--7^9------ ---------12-13-14----12-13----------------------------------------|
d----------- 9-7---14-------------------14----14-13-12----12-------------14-12-|
a--(whammy)- ------------------------------14----------14----14-13-12-11-------|
e----------- ------------------------------------------------------------------|

e--7------7------7----- -----------------------------------------------------------|
h--10^12--10^12--10^12- -----8------------------------------------------8-10^11-10-|
g---------------------- 9-9-----------------------------------------7-9------------|
d---------------------- ----------5-7-5-7^8-7-5-7---5-7-5-----5-7^9----------------|
a--(whammy)------------ --------7-----------------7-------7-7----------------------|
e---------------------- -----------------------------------------------------------|

e--------------12--------------------------------------------------------------------------|
h-----------12----12-14-14^15-14-12----12--------------------------------------------------|
g--12-14^16-------------------------15----15-12----14----12--------------------------------|
d-----------------------------------------------14----14----14-12----12--------------------|
a-----------------------------------------------------------------14----14-12-13-12--------|
e-----------------------------------------------------------------------------------12-15--|





Comments


Popular Kashmir tabs & chords
Miss You Bass Tabs
Ruby Over Diamonds 2 Bass Tabs
Surfing The Warm Industry Bass Tabs
Curse Of Being A Girl Chords
Miss You 1 Chords
Big Fresh Tabs
Kalifornia 1 Tabs
Melpomene Tabs
Travelouge Tabs
Danger Bear Ukulele


Song lyrics



↑ Back to top | Tablatures and chords are parodies/interpretations of the original songs. You may use it for private study, scholarship, research or language learning purposes only
© 2014 AZChords.com Contact us | Privacy policy | DMCA | Add/correct tabs | Request tabs | Top 50 tabs