» » »

Lampshade Bass tabs (ver.1)

Artists:  A B C D E F G H I J K L M N O P Q R S T U V W X Y Z # 

Lampshade Bass tabs (ver.1)

Kashmir
Rating:
4/5 (1 vote)

Hard to play? Try these video lessons and learn fast.
                Song Title: Lampshade

NOTE! This isn't actually what is played on the album. I have tabbed out the guitar
bass on bass guitar... It sounds good, if you wanted to play it live or whatever,
or just like the song and don't play guitar you can play along on bass. The bottom
half of this tab is the actual bass in the song, I didn't bother tabbing it myself
so I cut and pasted it this tab. Props where props are due, original tab by Ertner.
The timing is not correct in my tab, but it was just a quickie, so figure it out
yo'self. Have fun y'all.

INTRO:

   D D/b   A6sus4 Gmaj7 G6  D D/b A6sus4 Gmaj7 G6 G
C|---------------------------------------------------|
G|---------------------------------------------------|
D|---------------------------------------------------|
A|-5--2-------0-------------5--2-----0---------------|
E|------------------3----3----------------3----3--3--|

VERSE:

   D D/b   A6sus4 A Em Gm Bm Bsus2  D D/c# D/b D/a E G
C|-----------------------------------------------------|
G|-----------------------------------------------------|
D|-----------------------------------------------------|
A|-5--2-------0------------2---2----5--4---2---0-------|
E|-------------------0--3--------------------------0-3-|


CHORUS:

   D Asus4 A Em Gm
C|-------------------------------------------------|
G|-------------------------------------------------|
D|-------------------------------------------------|
A|-5---0-------------------------------------------|
E|-----------0--3----------------------------------|

CHORUS PART 2:

   Asus2   Aadd9   F#         Bm  A  E  Gm
C|----------------------------------------------|
G|----------------------------------------------|
D|----------/7-----4----------------------------|
A|---0------------------------2---0-------------|
E|-----------------------------------0--3-------|


Bass by. Mads Tunebjerg


Okay.... Here it is. the song we have waited for in so long time.


Start playing about 3:45 in the song
"Intro" (low)
G|--------------------|
D|----------------5-5-|
A|-------------5------|
E|-3-3--3-3--3--------|
Riff 1:
G|-----------------------------------------------|
D|-----------------------------------------------|   x2
A|-5-5--4-4-----2-2--1-1--0-0--1-1--2-2--3-3-4-4-|
E|----------3-3----------------------------------|
Riff 2:
G|------7------------------------------------------------------------|
D|-------------------------------------------------------------------|
A|-5-5----5--4-4-----2-2---2-1-1---1-0-0---0-1-1---1-2-2---2-3-3-4-4-|
E|---------------3-3-------------------------------------------------|
Riff 3:
G|-----------------------------------------------------------------|
D|-----------------------------------------------------------------|
A|-5-5-5-5-4-4-----2-2-2-2-1-1-1-1-0-0-0-0-1-1-1-1-2-2-2-2-3-3-4-4-|
E|-------------3-3-------------------------------------------------|
Riff 4:
G|------------------------|
D|------------------------|  x3
A|-5--4--2--0--------2----|
E|-------------4--0-----4-|
Outro: (low)
G|---------------|
D|---------------|
A|----0--1--3--5-|
E|-3-------------|
            
Hard to play? Try these video lessons and learn fast. | Correct




comments powered by Disqus
↑ Back to top | Tablatures and chords are parodies/interpretations of the original songs. You may use it for private study, scholarship, research or language learning purposes only