» » »

Kashmir, Just A Phase Tabs (ver.1)

Artists:  A B C D E F G H I J K L M N O P Q R S T U V W X Y Z # 

Just A Phase Tabs (ver.1)

Kashmir Tabs
 Rating:
4.3/5 (6 votes)
Just A Phase lessons Tabs too difficult? Try these video lessons and learn fast
1
                    _______________
   / Kashmir      / My interpretation of this sweet, relaxed song is about a
  / Just A Phase /  couple's struggle in an unpleasant time. They have to
 / Home Dead EP /   stick together though it's hard (walk up the stairs, though
/______________/    it's a long way), but it'll be rewarded eventually.

The song is played by two clean, acoustic guitars, which are playing roughly
the same, though with slight variations to give an authentic surround sound,
and the solo is played by a slightly distorted electric guitar.



Intro
  A                           |-3-|   A
  E   E   E.    S E   E   S S S S S   E   E   E.    S E   E   S S E
|---------0-----0-----0---0-0-------|---------0-----0-----0---0-0-----|
|---------2-----2-----2---2-2-------|---------2-----2-----2---2-2-----|
|---------2-----2-----2---2-2-------|---------2-----2-----2---2-2-----|
|-----2---2-----2-----2---2-2-------|-----2---2-----2-----2---2-2-----|
|-0---------------0-----------2b3r2-|-0---------------0---------------|
|-----------------------------------|-----------------------------0---|


  A                           |-3-|   A
  E   E   E.    S E   E   S S S S S   E   E   E.    S E   Q       E
|---------0-----0-----0---0-0-------|---------0-----0-----0---0-0-----|
|---------2-----2-----2---2-2-------|---------2-----2-----2---2-2-----|
|---------2-----2-----2---2-2-------|---------2-----2-----2---2-2-----|
|-----2---2-----2-----2---2-2-------|-----2---2-----2-----2---2-2-----|
|-0---------------0-----------2b3r2-|-0---------------0-----------0---|
|-----------------------------------|---------------------------------|



Første Vers
  Dmaj7                             Dmaj7
  Q       E   S S Q       E   S S   Q       E   S S E   E   q
|-2-------2---2-2-2-------2---2-2-|-2-------2---2-2-2---2---2-------|
|-2-------2---2-2-2-------2---2-2-|-2-------2---2-2-2---2---2-------|
|-2-------2---2-2-2-------2---2-2-|-2-------2---2-2-2---2---2-------|
|-0-------0---0-0-0-------0---0-0-|-0-------0---0-0-0---0---0-------|
|---------------------------------|---------------------------------|
|---------------------------------|---------------------------------|


  A                           |-3-|   A
  E   E   E.    S E   E   S S S S S   E   E   E.    S E   Q       E
|---------0-----0-----0---0-0-------|---------0-----0-----0---0-0-----|
|---------2-----2-----2---2-2-------|---------2-----2-----2---2-2-----|
|---------2-----2-----2---2-2-------|---------2-----2-----2---2-2-----|
|-----2---2-----2-----2---2-2-------|-----2---2-----2-----2---2-2-----|
|-0---------------0-----------2b3r2-|-0---------------0-----------0---|
|-----------------------------------|---------------------------------|



Andet Vers
  Bm7                               Dmaj7
  Q       E   S S Q       E   S S   Q       E   S S E   E   q
|-2-------2---2-2-2-------2---2-2-|-2-------2---2-2-2---2---2-------|
|-3-------3---3-3-3-------3---3-3-|-2-------2---2-2-2---2---2-------|
|-2-------2---2-2-2-------2---2-2-|-2-------2---2-2-2---2---2-------|
|-4-------4---4-4-4-------4---4-4-|-0-------0---0-0-0---0---0-------|
|-2-------2---2-2-2-------2---2-2-|---------------------------------|
|---------------------------------|---------------------------------|


  A                           |-3-|   A
  E   E   E.    S E   E   S S S S S   E   E   E.    S E   Q       E
|---------0-----0-----0---0-0-------|---------0-----0-----0---0-0-----|
|---------2-----2-----2---2-2-------|---------2-----2-----2---2-2-----|
|---------2-----2-----2---2-2-------|---------2-----2-----2---2-2-----|
|-----2---2-----2-----2---2-2-------|-----2---2-----2-----2---2-2-----|
|-0---------------0-----------2b3r2-|-0---------------0-----------0---|
|-----------------------------------|---------------------------------|



Tredje Vers
  Dmaj7                             F#m
  Q       E   S S Q       E   S S   Q       E   S S E   E   q
|-2-------2---2-2-2-------2---2-2-|-2-------2---2-2-2---2---2-------|
|-2-------2---2-2-2-------2---2-2-|-2-------2---2-2-2---2---2-------|
|-2-------2---2-2-2-------2---2-2-|-2-------2---2-2-2---2---2-------|
|-0-------0---0-0-0-------0---0-0-|-4-------4---4-4-4---4---4-------|
|---------------------------------|-4-------4---4-4-4---4---4-------|
|---------------------------------|-2-------2---2-2-2---2---2-------|


  B7                          |-3-|   B7
  E   E   E.    S E   E   S S S S S   E   E   E.    S E   E   S S E
|---------2-----2-----2---2-2-------|---------2-----2-----2---2-2-----|
|---------4-----4-----4---4-4-------|---------4-----4-----4---4-4-----|
|---------2-----2-----2---2-2-------|---------2-----2-----2---2-2-----|
|-----4---4-----4-----4---4-4-------|-----4---4-----4-----4---4-4-----|
|-2---------------2-----------4b5r4-|-2---------------2-----------2---|
|-----------------------------------|---------------------------------|



Omkvæd
  Dmaj7                             Esus            E
  Q       E   S S Q       E   S S   Q       E   S S E   E   E   S S
|-2-------2---2-2-2-------2---2-2-|-0-------0---0-0-0---0---0---0-0-|
|-2-------2---2-2-2-------2---2-2-|-0-------0---0-0-0---0---0---0-0-|
|-2-------2---2-2-2-------2---2-2-|-2-------2---2-2-1---1---2---1-1-|
|-0-------0---0-0-0-------0---0-0-|-2-------2---2-2-2---2---2---2-2-|
|---------------------------------|-2-------2---2-2-2---2---2---2-2-|
|---------------------------------|-0-------0---0-0-0---0---0---0-0-|


  A                           |-3-|   A
  E   E   E.    S E   E   S S S S S   E   E   E.    S E   Q       E
|---------0-----0-----0---0-0-------|---------0-----0-----0---0-0-----|
|---------2-----2-----2---2-2-------|---------2-----2-----2---2-2-----|
|---------2-----2-----2---2-2-------|---------2-----2-----2---2-2-----|
|-----2---2-----2-----2---2-2-------|-----2---2-----2-----2---2-2-----|
|-0---------------0-----------2b3r2-|-0---------------0-----------0---|
|-----------------------------------|---------------------------------|



Fjerde Vers
(spilles som første)



Femte Vers
(spilles som andet)



Sjette Vers
(spilles som tredje)



Omkvæd
  Dmaj7                             Esus            E
  Q       E   S S Q       E   S S   Q       E   S S E   E   E   S S
|-2-------2---2-2-2-------2---2-2-|-0-------0---0-0-0---0---0---0-0-|
|-2-------2---2-2-2-------2---2-2-|-0-------0---0-0-0---0---0---0-0-|
|-2-------2---2-2-2-------2---2-2-|-2-------2---2-2-1---1---2---1-1-|
|-0-------0---0-0-0-------0---0-0-|-2-------2---2-2-2---2---2---2-2-|
|---------------------------------|-2-------2---2-2-2---2---2---2-2-|
|---------------------------------|-0-------0---0-0-0---0---0---0-0-|


  A                           |-3-|   A
  E   E   E.    S E   E   S S S S S   E   E   E.    S E   Q       E
|---------0-----0-----0---0-0-------|---------0-----0-----0---0-0-----|
|---------2-----2-----2---2-2-------|---------2-----2-----2---2-2-----|
|---------2-----2-----2---2-2-------|---------2-----2-----2---2-2-----|
|-----2---2-----2-----2---2-2-------|-----2---2-----2-----2---2-2-----|
|-0---------------0-----------2b3r2-|-0---------------0-----------0---|
|-----------------------------------|---------------------------------|


  Bm7                               Dmaj7           E
  Q       E   S S Q       E   S S   Q       E   S S E   E   E   S S
|-2-------2---2-2-2-------2---2-2-|-2-------2---2-2-0---0---0---0-0-|
|-3-------3---3-3-3-------3---3-3-|-2-------2---2-2-0---0---0---0-0-|
|-2-------2---2-2-2-------2---2-2-|-2-------2---2-2-1---1---2---1-1-|
|-4-------4---4-4-4-------4---4-4-|-0-------0---0-0-2---2---2---2-2-|
|-2-------2---2-2-2-------2---2-2-|-----------------2---2---2---2-2-|
|---------------------------------|-----------------0---0---0---0-0-|


  A                           |-3-|   A
  E   E   E.    S E   E   S S S S S   E   E   E.    S E   Q       E
|---------0-----0-----0---0-0-------|---------0-----0-----0---0-0-----|
|---------2-----2-----2---2-2-------|---------2-----2-----2---2-2-----|
|---------2-----2-----2---2-2-------|---------2-----2-----2---2-2-----|
|-----2---2-----2-----2---2-2-------|-----2---2-----2-----2---2-2-----|
|-0---------------0-----------2b3r2-|-0---------------0-----------0---|
|-----------------------------------|---------------------------------|



Solo
(solo-backup is the acoustic guitars playing the chords
indicated with the strumming patterns previously used)

 Bm7                                      Bm7
  E    q        q        Q        +E       E    q        q        q        E
|----------------------------------------|-------------------------------------|
|----------------------------------------|-------------------------------------|
|-----11-------13-------14-------(14)\---|-----11-------13-------14-------13---|
|------x--------x--------x---------------|------x--------x--------x-------14---|
|------9-------11-------12-------(12)\---|------9-------11-------12-------12---|
|----------------------------------------|-------------------------------------|


 A                                      A
   +H..                           E         E     E E   E E   Q       E
|--------------------------------------|----------------------------------|
|--------------------------------------|----------------------------------|
|-(13)---------------------------13\---|-\=(9)----9\6---6\1---1-----------|
|-(14)---------------------------14\---|-\(11)---11\7---7\2---2-----------|
|-(12)---------------------------------|----------------------------------|
|--------------------------------------|----------------------------------|


 Bm7                                      Bm7
  E    q        q        Q        +E       E    q        q        q        E
|----------------------------------------|-------------------------------------|
|----------------------------------------|-------------------------------------|
|-----11-------13-------14-------(14)\---|-----11-------13-------14-------18---|
|------x--------x--------x---------------|------x--------x--------x--------x---|
|------9-------11-------12-------(12)\---|------9-------11-------12-------16---|
|----------------------------------------|-------------------------------------|


 Dmaj7                                         A
   +E     +S  S   q        S  S  q        E      +E     E    E E   E E   Q
|---------------------------------------------|----------------------------------|
|---------------------------------------------|----------------------------------|
|-(18)---(18)----------------------------14---|-(14)---13---13\9---9\6---6~------|
|-----------------------------------------x---|---------x----x-----x-----x-------|
|-(16)---(16)h17-16-------14h16-14-------12---|-(12)---11---11\7---7\4---4~------|
|---------------------------------------------|----------------------------------|


 Bm7                                      F#m
  E    q        q        Q        +E       E    q        q        q        E
|----------------------------------------|-------------------------------------|
|----------------------------------------|-------------------------------------|
|-----11-------13-------14-------(14)\---|-----14-------16-------18-------20---|
|------x--------x--------x---------------|------x--------x--------x--------x---|
|------9-------11-------12-------(12)\---|-----12-------14-------16-------18---|
|----------------------------------------|-------------------------------------|


 B7                                              Bm7
   +Q.            S  S  E    E    S  S E    E      +Q         S  S  E    E    S  S Q
|--------------------------------------x--------|----------------------------------x---|
|--------------------------------------x--------|----------------------------------x---|
|-(20)-----------20----20---18---18----x---16---|-(16)-------16----16---14---14----x---|
|-----------------x-----x----x----x----x----x---|-------------x-----x----x----x----x---|
|-(18)-----------18h19-18---16---16h18-x---14---|-(14)-------14h16-14---12---12h14-x---|
|--------------------------------------x--------|----------------------------------x---|



sl*tning
  Dmaj7                             Esus            E
  Q       E   S S Q       E   S S   Q       E   S S E   E   E   E
|-2-------2---2-2-2-------2---2-2-|-0-------0---0-0-0---0---0---0---|
|-2-------2---2-2-2-------2---2-2-|-0-------0---0-0-0---0---0---0---|
|-2-------2---2-2-2-------2---2-2-|-2-------2---2-2-1---1---2---1---|
|-0-------0---0-0-0-------0---0-0-|-2-------2---2-2-2---2---2---2---|
|---------------------------------|-2-------2---2-2-2---2---2---2---|
|---------------------------------|-0-------0---0-0-0---0---0---0---|
|
| Q       E   E   E   E   E   E     Q       E   E   E   E   Q
|---------2-------2-------2-------|---------0-----------------------|
|-------------2-------2-------2---|---------------------------------|
|---------------------------------|-------------2---1-------1-------|
|---------------------------------|---------------------2-----------|
|---------------------------------|---------------------------------|
|---------------------------------|---------------------------------|


  A                           |-3-|   A
  H..                         S S S   W
|-0---------------------------------|---------------------------------|
|-2---------------------------------|---------------------------------|
|-2---------------------------------|---------------------------------|
|-2---------------------------------|---------------------------------|
|-0---------------------------2b3r2-|-0-------------------------------|
|-----------------------------------|---------------------------------|


    Dmaj7                             Esus            E
    Q       E   S S Q       E   S S   Q       E   S S E   E   E   E
||--2-------2---2-2-2-------2---2-2-|-0-------0---0-0-0---0---0---0---|
||o-2-------2---2-2-2-------2---2-2-|-0-------0---0-0-0---0---0---0---|
||--2-------2---2-2-2-------2---2-2-|-2-------2---2-2-1---1---2---1---|
||--0-------0---0-0-0-------0---0-0-|-2-------2---2-2-2---2---2---2---|
||o---------------------------------|-2-------2---2-2-2---2---2---2---|
||----------------------------------|-0-------0---0-0-0---0---0---0---|


  A                                  A
  W                                 +W                                 2x
|-0-------------------------------|-(0)--------------------------------||
|-2-------------------------------|-(2)-------------------------------o||
|-2-------------------------------|-(2)--------------------------------||
|-2-------------------------------|-(2)--------------------------------||
|-0-------------------------------|-(0)-------------------------------o||
|---------------------------------|------------------------------------||
            
Submit corrections

comments powered by Disqus
↑ Back to top | Kashmir Tabs for Just A Phase. Lyrics for acoustic guitar and electric guitar. 1 Tablatures and chords are parodies/interpretations of the original songs. You may use it for private study, scholarship, research or language learning purposes only