>
 >
It's Ok Now

It's Ok Now Guitar Tabs

Kashmir - It's Ok Now chords, tabs, tablatures, lyrics

Guitar lessons | Add/correct | Request | Top 50 tabs Artists:  A B C D E F G H I J K L M N O P Q R S T U V W X Y Z 0-9

It's Ok Now Guitar Tabs – Kashmir

CD, Sheet music, Poster

Do you like It's Ok Now? Share with your friends now
ChordsTabs
    _______________
   /Kashmir       / Her er der lagt op til en akustisk version af denne
  /It's OK Now   /  vidunderligt smukke sang om at lære at give slip.
 /The Good Life /   Alt tak går til kopibandet Papshmir, der har tabbet næsten



FORSPIL:
 Bm    Bm7    Bm6   Bmmaj9 Bm    Bm7    Bm6   Bmmaj9
|------------|------------|------------|------------|
|--3-----3---|--3-----3---|--3-----3---|--3-----3---|
|--4-----2---|--1-----3---|--4-----2---|--1-----3---|
|------------|------------|------------|------------|
|2-----2-----|2-----2-----|2-----2-----|2-----2-----|
|------------|------------|------------|------------|



1. VERS:
 Bm           Bb           D            F#m
|2-----------|1-----------|2-----------|2-----------|
|3-----------|3-----------|3-----------|2-----------|
|4-----------|3-----------|2-----------|2-----------|
|4-----------|3-----------|0-----------|4-----------|
|2-----------|1-----------|------------|4-----------|
|------------|------------|------------|2-----------|
You what it means That you'll soon be

 G            Gm           Dsus4 D      Dsus2 F#7b13
|3-----------|3-----------|3-----2-----|0-----3-----|
|3-----------|3-----------|3-----3-----|3-----3-----|
|4-----------|3-----------|2-----2-----|2-----3-----|
|5-----------|5-----------|0-----0-----|0-----2-----|
|5-----------|5-----------|------------|------x-----|
|3-----------|3-----------|------------|------2-----|
off but you don't know where to



2. VERS:
 Bm           Bb           D            F#m
|2-----------|1-----------|2-----------|2-----------|
|3-----------|3-----------|3-----------|2-----------|
|4-----------|3-----------|2-----------|2-----------|
|4-----------|3-----------|0-----------|4-----------|
|2-----------|1-----------|------------|4-----------|
|------------|------------|------------|2-----------|
And what comes before You thought there'd be so much

 G            Gm           Dsus4 D      Dsus2 D
|3-----------|3-----------|3-----2-----|0-----3-----|
|3-----------|3-----------|3-----3-----|3-----3-----|
|4-----------|3-----------|2-----2-----|2-----2-----|
|5-----------|5-----------|0-----0-----|0-----0-----|
|5-----------|5-----------|------------|------------|
|3-----------|3-----------|------------|------------|
more But the good films run out



1. OMKVÆD:
 Em    Emadd9 Em    Gm     Dsus4 D      Dsus2
|3-----2-----|0-----3-----|3-----2-----|0-----------|
|0-----0-----|0-----3-----|3-----3-----|3-----------|
|0-----0-----|0-----3-----|2-----2-----|2-----------|
|2-----2-----|2-----5-----|0-----0-----|0-----------|
|2-----2-----|2-----5-----|------------|------------|
|0-----0-----|0-----3-----|------------|------------|
Don't hang on Just because you

 Em7          Em6   Em7    Gm           Gmb5
|------------|------------|------------|------------|
|3-----3-----|2-----3-----|3-----3-----|2-----------|
|--4-----4---|--4-----4---|--3-----3---|3-----------|
|----2-----2-|----2-----2-|----5-----5-|5-----------|
|------------|------------|------------|------------|
|------------|------------|------------|------------|
can Now you must let go



3. VERS (spillet som første):
As you fall astern
And we all prepare to yearn
For the one who once was



4. VERS (spillet som anden):
I'll think of the good
And work on the things we should
Put an end to



2. OMKVÆD:
 Em    Emadd9 Em    Gm     Dsus4 D      Dsus2 Dmaj9
|3-----2-----|0-----3-----|3-----2-----|0-----0-----|
|0-----0-----|0-----3-----|3-----3-----|3-----2-----|
|0-----0-----|0-----3-----|2-----2-----|2-----2-----|
|2-----2-----|2-----5-----|0-----0-----|0-----0-----|
|2-----2-----|2-----5-----|------------|------------|
|0-----0-----|0-----3-----|------------|------------|
 Don't hang on Just because you

 Em           Em6   Em7    Gm           Gmb5  Gm
|------------|------------|------------|------3-----|
|3-----3-----|2-----3-----|3-----3-----|2-----3-----|
|--4-----4---|--4-----4---|--3-----3---|3-----3-----|
|----2-----2-|----2-----2-|----5-----5-|5-----5-----|
|------------|------------|------------|------5-----|
|------------|------------|------------|------3-----|
can Now you must let go Up some-

 D            D     Gm     D            D     Gm  
|2-----------|2-----3-----|2-----------|2-----3-----|
|3-----------|3-----3-----|3-----------|3-----3-----|
|2-----------|2-----3-----|2-----------|2-----3-----|
|0-----------|0-----5-----|0-----------|0-----5-----|
|------------|------5-----|------------|------5-----|
|------------|------3-----|------------|------3-----|
where No place near Far from

 Bm    Bm11   Bm13 Bmmaj11 Gm           Gm
|2-----0-----|0-----0-----|3-----------|3-----------|
|3-----3-----|3-----3-----|3-----------|3-----------|
|4-----2-----|1-----3-----|3-----------|3-----------|
|4-----0-----|0-----0-----|5-----------|5-----------|
|2-----2-----|2-----2-----|5-----------|5-----------|
|------------|------------|3-----------|3-----------|
here I know that you are



DRAMA-STYKKE:
 B     C#     D     E      F     E      D     Bb
|------------|------------|------------|------------|
|------------|------------|------------|------------|
|------------|------------|------------|------------|
|------------|-----/2-----|3-----2-----|------------|
|2-----4-----|5-----------|------------|5-----1-----|
|------------|------------|------------|------------|

 A     D      E     F#     G     F      Bb    C#
|------------|------------|------------|------------|
|------------|------------|------------|------------|
|------------|------------|------------|------------|
|------0-----|2-----2/4---|5-----3-----|------------|
|0-----------|------------|------------|6----\4-----|
|------------|------------|------------|------------|

 C     F      G     G#     B     E      F#    G#
|------------|------------|------------|------------|
|------------|------------|------------|------------|
|------------|------------|------------|------------|
|------3-----|5-----5/6---|------2-----|4-----4/6---|
|3-----------|------------|2-----------|------------|
|------------|------------|------------|------------|

 G#sus4       G#           F#sus4       F#
|4-----------|4-----------|2-----------|2-----------|
|4-----------|4-----------|2-----------|2-----------|
|6-----------|5-----------|4-----------|3-----------|
|6-----------|6-----------|4-----------|4-----------|
|------------|------------|------------|------------|
|------------|------------|------------|------------|



EFTERSPIL:
 Bm    Bm7    Bm6   Bmmaj9 Bm    Bm7    Bm6   Bmmaj9
|------------|------------|------------|------------|
|--3-----3---|--3-----3---|--3-----3---|--3-----3---|
|--4-----2---|--1-----3---|--4-----2---|--1-----3---|
|------------|------------|------------|------------|
|2-----2-----|2-----2-----|2-----2-----|2-----2-----|
|------------|------------|------------|------------|



5/ apr/ 05
- det er rigtig fedt at få responce!





Comments


Popular Kashmir tabs & chords
Mouthful Of Wasps 2 Bass Tabs
Supergirl Bass Tabs
Cellophane Chords
Electrified Love Chords
Lampshade Tabs
Rose 1 Tabs
Stand Tabs
The Push Tabs
Travelouge Tabs
Miss You Ukulele


Song lyrics



↑ Back to top | Tablatures and chords are parodies/interpretations of the original songs. You may use it for private study, scholarship, research or language learning purposes only
© 2014 AZChords.com Contact us | Privacy policy | DMCA | Add/correct tabs | Request tabs | Top 50 tabs