>
 >
Christians Dive

Christians Dive Guitar Tabs

Kashmir - Christians Dive chords, tabs, tablatures, lyrics

Guitar lessons | Add/correct | Request | Top 50 tabs Artists:  A B C D E F G H I J K L M N O P Q R S T U V W X Y Z 0-9

Christians Dive Guitar Tabs – Kashmir

CD, Sheet music, Poster

Do you like Christians Dive? Share with your friends now
Tabs
INTRO / VERSE 1

   Asus  A   Asus7  Dadd9/a  Csus2  Asus2  A   Asus7  Dadd9/a  Csus2
e--(0)--(0)--(0)----(0)------3------(0)---(0)--(0)----(0)------3----|
h--15---14---10-----10-------3------12----14---10-12--10-------3----|
g--14---14---12-----11-------5------14----14---12-----11-------5----|
d--14---14---12-----12-------5------14----14---12-----12-------5----|
a---0----0----0------0-------3-------0-----0----0------0-------3----|
e-------------------------------------------------------------------|
   All the last so emotional signs...

BRIDGE

   Fmaj7  Ebmaj7       F  Eb  /f  /eb  /f  /eb  /f  /eb
e---8-----6----- -g- ----------------------------------|
h--10-----8----- -e- ----------------------------------|
g---9-----7----- -n- -10--8---10--12---10--12---14--15-|
d--10-----8----- -t- -10--8----------------------------|
a---8-----6----- -a- --8--6----8--10----8--10---12--13-|
e--------------- -g- ----------------------------------|

VERSE 2

   A  A  G  G  G  D/f#  C  C  C       F  E(m)
e------------------------------- -g- ----(0)- -0--0--0--0--0--0--0--0-|
h------------------------------- -e- ----(0)- -0--0--1--3--3--0--1--3-|
g------------------------------- -n- ----(0)- -2--0--0--0--2--0--0--0-|
d-----------------------5--5--5- -t- -3---2-- -2--2--2--2--2--2--2--2-|
a--7--7--5--5--5--5--5--3--3--3- -a- -3---2-- -0--0--0--0--0--0--0--0-|
e--5--5--3--3--3--2--2---------- -g- -1---0-- ------------------------|


   A    C  F  E  A  D/f#  F   H    A    C  F  E  A  D/f#   F    E
e------------------------------------------------------------------|
h------------------------------------------------------------------|
g--2----5--------2-----------4-4---2----5--------2-----------------|
d--2----5--3--2--2--------3--4-4---2----5--3--2--2--------3-3--2-2-|
a--0----3--3--2--0--5-----3--2-2---0----3--3--2--0--5-----3-3--2-2-|
e----------1--0-----2-----1----------------1--0-----2-----1-1--0-0-|
   Christian dived...

 SOLO
e------------------------------------------------ -g- -------------|
h------------------------------------------------ -e- -------------|
g----2-----------2-----------2------------------- -n- -------------|
d--------5-3-2-------5-3-2-------5-3-2----------- -t- -----------7-|
a------3-----------3-----------3-------5-3-2---7- -a- -------5-7---|
e--5-----------5-----------5-----------------3--- -g- -5-7-8-------|

e--> ----------------------------------------------------------5---|
h--> ----------10---10---12-10-12^13---------------------5-6-5---5-|
g--> 4-5-7---9----9----9-------------7-7-5-4-5-4---4-5-7-----------|
d--> ------7-------------------------------------7-----------------|
a--> --------------------------------------------------------------|
e--> --------------------------------------------------------------|

e--> 7---8---7---5---7-8-10----------------------------16----------|
h--> --5---5---5---5--------15^17-17^15-13-15^16^15-13----15^16^15-|
g--> --------------------------------------------------------------|
d--> --------------------------------------------------------------|
a--> --------------------------------------------------------------|
e--> --------------------------------------------------------------|

OUTRO

   A  G/h  F  Em   A  G/h  F   E  F  G  C  Asus2
e-------------0----------------------------0-----|
h-------------0----------------------------0-----|
g--2----------0----2--------------------5--2-----|
d--2--5----3--2----2--5----3---2--3--5--5--2-----|
a--0--2----3--2----0--2----3---2--3--5--3--0-----|
e----------1--0------------1---0--1--3-----------|





Comments


Popular Kashmir tabs & chords
The Story Of Jamie Fame Flame Bass Tabs
Curse Of Being A Girl Chords
Splittet Til Atomer 1 Chords
Swahili Chords
The Aftermath Chords
Rocket Brothers 1 Tabs
Travelogue 1 Tabs
Vote 4 Dick Taid Tabs
Cellophane Ukulele
Ruby Over Diamonds Ukulele


Song lyrics



↑ Back to top | Tablatures and chords are parodies/interpretations of the original songs. You may use it for private study, scholarship, research or language learning purposes only
© 2014 AZChords.com Contact us | Privacy policy | DMCA | Add/correct tabs | Request tabs | Top 50 tabs