>
 >
Cellophane 1

Cellophane 1 Guitar Tabs

Kashmir - Cellophane 1 chords, tabs, tablatures, lyrics

Guitar lessons | Add/correct | Request | Top 50 tabs Artists:  A B C D E F G H I J K L M N O P Q R S T U V W X Y Z 0-9

Cellophane 1 Guitar Tabs – Kashmir

CD, Sheet music, Poster

Do you like Cellophane 1? Share with your friends now
ChordsTabsTabs v2Ukulele
    _____________________________
   / Kashmir                    /  A shame this song was never released on a
  / Cellophane                 /  "real" album. But on the contrary, this live
 / The Aftermath / Katalogue  /  version is so good, that it couldn't possibly
/____________________________/  get better! Relax and enjoy!


 Here's a general strumming pattern exemplified by the first two bars:
  G                                 C             G/B
  1   +   2   +   3   +   4   +     1   +   2   +   3   +   4   +
|---------3-----3-----3-----------|---------3---- ------------------|
|---------0-----0-----0-----------|---------1---- 3-----3-----------|
|-0-------0-----0-0---0-------0---|-0-------0---- 0-0---0-------0---|
|-0-------0-----0-0---0-------0---|-2-------2---- 0-0---0-------0---|
|-2-------2-------2-----------2---|-3-------3---- --2---2-------2---|
|-3-------3-------3-----------3---|-------------- ------------------|

(When the chord is only notated once in the bar, it simply means to follow the
 strumming pattern. When there is a fill, I'll of course notate that thoroughly.)

+---------------------------------------------------------------------------------+


 Harmonica intro: Verse + Chorus



 Verse:                                    1.            2.
    G         C  G/B  D7/F# Em    Bm        Bm   Bm/A     Bm
||--3-------|-3-------|-----0---|---------|------------||---------|
||o-0-------|-1---3---|-1---0---|-3-------|-3-----3---o||-3-------|
||--0-------|-0---0---|-2---0---|-4-------|-4-----4----||-4-------|
||--0-------|-2---0---|-0---x---|-4-------|-4-----4----||-4-------|
||o-2-------|-3---2---|-0---2---|-2-------|-0h2---0---o||-2-------|
||--3-------|---------|-2---0---|---------|------------||---------|



 Chorus:
  D        Am7  C     D        Am7  C
|-2-------|-0---0---|-2-------|-0---0---|
|-3-------|-1---1---|-3-------|-1---1---|
|-2-------|-0---0---|-2-------|-0---0---|
|-0-------|-2---2---|-0-------|-2---2---|
|---------|-0---3---|---------|-0---3---|
|---------|---------|---------|---------|

  D        Am7  F     Em   G/B  C                      C
|-2-------|-0---1---|-0-------|-0-----0----0-0-------|-0-----0----0-0-----|
|-3-------|-1---1---|-0-----0-|-1-----1----1-1-1-1-1-|-1-----1----1-1-1-1-|
|-2-------|-0---2---|-0-----0-|-0-----0----0-0-0-0-0-|-0-----0----0-0-0-0-|
|-0-------|-2---3---|-x-----0-|-2-----2----2-2-4-4-2-|-0h2---2----2-2-0-0-|
|---------|-0---3---|-2-----2-|-3-----3----3-3-3-3-3-|-3-----3----3-3-3-3-|
|---------|-----1---|-0-------|----------------------|--------------------|



 Verse

 Chorus



 Bridge:
Here Asger comes in with an electric guitar (lower tab).
Kasper continues the strumming, and Asger plays what is actually indicated.

  Em        Gmaj7     Em        Gmaj7
|-0-------|-3-------|-0-------|-3-------|
|-0-------|-3-------|-0-------|-3-------|
|-0-------|-0-------|-0-------|-0-------|
|-x-------|-0-------|-x-------|-0-------|
|-2-------|-x-------|-2-------|-x-------|
|-0-------|-3-------|-0-------|-3-------|
|
|-0^------|-2^------|-0^------|-2^------|
|-0^------|-3^------|-0^------|-3^------|
|-0^------|-4^------|-0^------|-4^------|
|-2^------|-4^------|-2^------|-4^------|
|-2^------|-x^------|-2^------|-x^------|
|-0^------|-3^------|-0^------|-3^------|

          (2/4)
  C         C G/B  Am        Fmaj7     Em
|-0-------|-0----|-0-------|-1-------|-0-------|
|-1-------|-1--3-|-1-------|-1-------|-0-------|
|-0-------|-0--0-|-2-------|-2-------|-0-------|
|-2-------|-2--0-|-2-------|-3-------|-2-------|
|-3-------|-3--2-|-0-------|-3-------|-2-------|
|---------|------|---------|-1-------|-0-------|
|
|-0^------|------|-0^------|-0^------|-0^------|
|-1^------|------|-1^------|-1^------|-0^------|
|-0^------|------|-2^------|-2^------|-0^------|
|-2^------|------|-2^------|-3^------|-2^------|
|-3^------|-3--2-|-0^------|-3^------|-2^------|
|---------|------|---------|-1^------|-0^------|


  D/F#        /G  /A              /B  /C              /D  /E          /F#
|-2---2---2-2-2-2-2-|-2---2---2-2-2-2-2-|-2---2---2-2-2-2-2-|-2---2---2-2-2-2-2-|
|-3---3---3-3-3-3-3-|-3---3---3-3-3-3-3-|-3---3---3-3-3-3-3-|-3---3---3-3-3-3-3-|
|-2---2---2-2-2-2-2-|-2---2---2-2-2-2-2-|-2---2---2-2-2-2-2-|-2---2---2-2-2-2-2-|
|-0---0---0-0-0-0-0-|-0---0---0-0-0-0-x-|-x---x---x-x-0-0-2-|-2---2---4-4-4-4-4-|
|-0---0---0-0-x-x-0-|-0---0---0-0-2-2-3-|-3---3---3-3-------|-------------------|
|-2---2---2-2-3-3---|-------------------|-------------------|-------------------|
|
|-2^----------------|-------------------|-------------------|-------------------|
|-3^----------------|let-the-chord-ring-|-------------------|-------------------|
|-2^----------------|-------------------|-------------------|-------------------|
|-0^----------------|-------------------|-------------------|-------------------|
|-------------------|-------------------|-------------------|-------------------|
|-------------------|-------------------|-------------------|-------------------|



 Harmonica/Guitar solo: Verse

Kasper strums the chords.

Asger plays this solo:
  G                 C       G/B       D/F#    Em        Bm
|-----------------|-----------------|-----------------|-----------------|
|-8---------------|-----------------|-------3-0-------|-----------------|
|---------7-------|-9-----7-0-------|-2-------------0-|-2---2-2---2---2-|
|-----------------|-----------------|-----------------|-----------------|
|-----------------|-----------------|-----------------|-----------------|
|-----------------|-----------------|-----------------|-----------------|

  Bm      Bm/A       G                 C       G/B       D/F#    Em
|-----------------||-----------------|-----------------|-----------------|
|-----------------||-8---------------|-----------------|----3--1-0-------|
|-2/4---4-4/5-----||---------7-------|-9-----7-0-------|-2----------2--0-|
|-----------------||-----------------|-----------------|-----------------|
|-----------------||-----------------|-----------------|-----------------|
|-----------------||-----------------|-----------------|-----------------|

  Bm                Bm
|-----------------|-----------------|
|-----------------|-----------------|
|-4---------------|-(4)-------------|
|-----------------|-----------------|
|-----------------|-----------------|
|-----------------|-----------------|



 Chorus:
The organ plays the chords, with only one C at the end, then end on G.




 LYRICS
**********
There she goes in her raincoat
bringing out all the darkest of skies
And I know that I can walk alone
'cause the murder is for real in her eyes

Cellophane
is doing us part, so cry in vain
'cause I'm dodging your dots
throwing stains
and the photos that you would love to keep

There's a little bit of death
in every mad goodbye we say
But thank God, there's still morning air
in her wake showing up the next day

Cellophane
I'll leave the good things and go insane
Hang to dry from a string
Who's to blame?
As I can recall there were two of us

Oh, what a waste, there goes everything
This is not how it should've been
This is not where we should've been
This is not the end

Cellophane
I'll leave the good things and go insane
Hang to dry from a string
and who's to blame?
As I can recall there were two of us


+-------------------------------------------------------------------------------+
Jon Sebastian Frederiksen  24th /November /11





Comments


Popular Kashmir tabs & chords
In The Sand Bass Tabs
Make It Grand Bass Tabs
Curse Of Being A Girl 2 Chords
Cellophane Tabs
Curse Of Being A Girl Live Tabs
Eter Intro Tabs
Little Old Birdy Funk Thing Tabs
Small Poem Of Old Friend 1 Tabs
The Story Of Jamie 2 Tabs
The Story Of Jamie Fame Flame 3 Tabs


Song lyrics



↑ Back to top | Tablatures and chords are parodies/interpretations of the original songs. You may use it for private study, scholarship, research or language learning purposes only
© 2014 AZChords.com Contact us | Privacy policy | DMCA | Add/correct tabs | Request tabs | Top 50 tabs