» » »

Bring Back Superman Tabs (ver.1)

Artists:  A B C D E F G H I J K L M N O P Q R S T U V W X Y Z # 

Bring Back Superman Tabs (ver.1)

Kashmir
Rating:
5/5 (1 vote)

Hard to play? Try these video lessons and learn fast.
                    ______________________
   / Kashmir             / Denne sang handler om en fyr, der er totalt besat
  / Bring Back Superman /  af denne pige efter lang tid med et kærlighedsliv
 / Cruzential          /   lagt på is. Han hungrer efter følelsen af at være
/_____________________/    høj på kærlighed og at føle sig som Supermand! :)


Tuning, Standard: E A D G B E
Guitar-1, Clean
Guitar-2, med Cruzential-distortion
         (- Distortion’en, der bl.a. bliver brugt i Vote 4 Dick Taid soloen,
          Prawn’s Blues, sidste halvdel af Dring, soloen i Victoria...)
Guitar-3, med Cruzential-distortion


Forspil:
 Guitar-1:
                                                    |-3-|
  E   E S S Q       E   E   E     E   E S S Q       T T T S +Q
|-------------------------------|-------------------------------------|
|-----2b3r2-0-------------------|-----2b3r2-0-------0h2h3p2-(2)-------|
|-------------------2-------2---|-------------------------------------|
|-----------------------2-------|-------------------------------------|
|-0-----------------------------|-0-----------------------------------|
|-------------------------------|-------------------------------------|

      |--3--|
  E   E E   E E   E   E   E   E     E    E   E   E   E   E   E   E
|---------------------------------|----------------------------------|
|-----2b2.5r2-0-------------------|------3---0-----------------------|
|---------------------2-------2---|--------------0-------------------|
|-------------------------2-------|------------------3---2---0-------|
|-0---------------0---------------|-3*---------------------------3---|
|---------------------------------|----------------------------------|
                                     *Tonen [C] bliver egentlig spillet
                                         af bassen en oktav dybere



Første Vers:
Bassen spiller riffet uden tonerne på d-strengen,
men hvis det skal spilles på guitar, så lyder det
federe at tage dem med, da de giver en masse fylde

  A5/E              C5/E        E5    A5/E              C5/E        E5
  q   q   q   q     q   q   q   q     q   q   q   q     q   q   q   q
|-----------------|-----------------|-----------------|-----------------|
|-----------------|-----------------|-----------------|-----------------|
|-----------------|-----------------|-----------------|-----------------|
|-2---2---2---2---|-5---5---5---2---|-2---2---2---2---|-5---5---5---2---|
|-0---0---0---0---|-3---3---3---2---|-0---0---0---0---|-3---3---3---2---|
|-0---0---0---0---|-3---3---3---0---|-0---0---0---0---|-3---3---3---0---|


  F5                D#5/Bb            G#5               E5
  q   q   q   q     q   q   q   q     q   q   q   q     q   q   q   q
|-----------------|-----------------|-----------------|-----------------|
|-----------------|-----------------|-----------------|-----------------|
|-----------------|-----------------|-----------------|-----------------|
|-3---3---3---3---|-8---8---8---8---|-6---6---6---6---|-2---2---2---2---|
|-3---3---3---3---|-6---6---6---6---|-6---6---6---6---|-2---2---2---2---|
|-1---1---1---1---|-6---6---6---6---|-4---4---4---4---|-0---0---0---0---|




Andet Vers:
Guitar-1 spiller akkorderne med lidt ’tilfældige’
anslag oven i, efter samme taktinddeling som bassen

 |   A   |  Cadd9 E  |   A   |  Cadd9 E  |

-----0--------0---0------0-------0---0-----
-----2--------3---0------2-------3---0-----
-----2--------0---1------2-------0---1-----
-----2--------2---2------2-------2---2-----
-----0--------3---2------0-------3---2-----
------------------0------------------0-----


 |  Fmaj7#11  |  D#sus2  |  G#  |  Esus4  |

-------0-----------6--------4--------0------
-------0-----------6--------4--------0------
-------2-----------8--------5--------2------
-------3-----------8--------6--------2------
-------3-----------6--------6--------2------
-------1--------------------4--------0------




Omkvæd:
I første halvdel spiller Guitar-1 akkorderne over tabs’ne
og i anden halvdel spiller den bare det samme som Guitar-2

 Guitar-2:
  A                                       A
  E    E    E   Q        E    E    E      E    E    E   Q        Q.
|---------------------------------------|-------------------------------------|
|---------------------------------------|-------------------------------------|
|---------------------------------------|-------------------------------------|
|-----12---11---9~-------7---\2---/7~---|-----12---11---9~------11~-----------|
|-0----0----0---0--------0--------------|-0----0----0---0--------0------------|
|---------------------------------------|-------------------------------------|


  A                                     Cadd9           Cmaj7
  E    E    E   Q        E    E   E     E   E   E   Q       Q       E
|-------------------------------------|---------------------------------|
|-------------------------------------|-----3---0-----------------------|
|---------------------------------2---|-----0---0---0-------------------|
|-----12---11---9~-------7---\2-------|-----2---2---2-------2-------3---|
|-0----0----0---0--------0------------|-3---3---3---3-------3-------3---|
|-------------------------------------|---------------------------------|


 Guitar-1 & -2
  Fmaj7#11                          E
  E   E   E   E   E   E   E   E     E   E   E   E   E   E   E   E
|-0---0---0---0---0---0---0---0---|-0---0---0---0---0---0---0---0---|
|-0---0---0---0---0---0---0---0---|-0---0---0---0---0---0---0---0---|
|-2---2---2---2---2---2---2---2---|-1---1---1---1---1---1---1---1---|
|-3---3---3---3---3---3---3---3---|-2---2---2---2---2---2---2---2---|
|-3---3---3---3---3---3---3---3---|-2---2---2---2---2---2---2---2---|
|-1---1---1---1---1---1---1---1---|-0---0---0---0---0---0---0---0---|


  Dsus2                             Cmaj7
  E   E   E   E   E   E   E   E     W
|-5---5---5---5---5---5---5---5---|-0-------------------------------|
|-5---5---5---5---5---5---5---5---|-0-------------------------------|
|-7---7---7---7---7---7---7---7---|-0-------------------------------|
|-7---7---7---7---7---7---7---7---|-2-------------------------------|
|-5---5---5---5---5---5---5---5---|-3-------------------------------|
|---------------------------------|---------------------------------|




Tredje Vers:
Guitar-2 spiller samme akkorder som Guitar-1 spillede i andet
vers – det er let selv at høre, hvornår der skal tæskes igennem




Bro-Omkvæd:
Der spilles første halvdel som før og så dette

 Guitar-1 & -2
  Fmaj7#11                          E
  E   E   E   E   E   E   E   E     E   E   E   E   E   E   E   E
|-0---0---0---0---0---0---0---0---|-0---0---0---0---0---0---0---0---|
|-0---0---0---0---0---0---0---0---|-0---0---0---0---0---0---0---0---|
|-2---2---2---2---2---2---2---2---|-1---1---1---1---1---1---1---1---|
|-3---3---3---3---3---3---3---3---|-2---2---2---2---2---2---2---2---|
|-3---3---3---3---3---3---3---3---|-2---2---2---2---2---2---2---2---|
|-1---1---1---1---1---1---1---1---|-0---0---0---0---0---0---0---0---|


  Dsus2                             Dsus2
  E   E   E   E   E   E   E   E     E   E   E   E   E   E   E   E
|-5---5---5---5---5---5---5---5---|-5---5---5---5---5---5---5---5---|
|-5---5---5---5---5---5---5---5---|-5---5---5---5---5---5---5---5---|
|-7---7---7---7---7---7---7---7---|-7---7---7---7---7---7---7---7---|
|-7---7---7---7---7---7---7---7---|-7---7---7---7---7---7---7---7---|
|-5---5---5---5---5---5---5---5---|-5---5---5---5---5---5---5---5---|
|---------------------------------|---------------------------------|




Verdens fedeste live-Omkvæd:
 Guitar-1 & -2:
  Dsus2                             A
  E   E   E   E   E   E   E   E     E   E   E   E   E   E   E   E
|-5---5---5---5---5---5---5---5---|-5---5---5---5---5---5---5---5---|
|-5---5---5---5---5---5---5---5---|-5---5---5---5---5---5---5---5---|
|-7---7---7---7---7---7---7---7---|-6---6---6---6---6---6---6---6---|
|-7---7---7---7---7---7---7---7---|-7---7---7---7---7---7---7---7---|
|-5---5---5---5---5---5---5---5---|-7---7---7---7---7---7---7---7---|
|---------------------------------|-5---5---5---5---5---5---5---5---|


  F#m                               E
  E   E   E   E   E   E   E   E     E   E   E   E   E   E   E   E
|-2---2---2---2---2---2---2---2---|-0---0---0---0---0---0---0---0---|
|-2---2---2---2---2---2---2---2---|-0---0---0---0---0---0---0---0---|
|-2---2---2---2---2---2---2---2---|-1---1---1---1---1---1---1---1---|
|-4---4---4---4---4---4---4---4---|-2---2---2---2---2---2---2---2---|
|-4---4---4---4---4---4---4---4---|-2---2---2---2---2---2---2---2---|
|-2---2---2---2---2---2---2---2---|-0---0---0---0---0---0---0---0---|


  Dsus2                             A
  E   E   E   E   E   E   E   E     E   E   E   E   E   E   E   E
|-5---5---5---5---5---5---5---5---|-5---5---5---5---5---5---5---5---|
|-5---5---5---5---5---5---5---5---|-5---5---5---5---5---5---5---5---|
|-7---7---7---7---7---7---7---7---|-6---6---6---6---6---6---6---6---|
|-7---7---7---7---7---7---7---7---|-7---7---7---7---7---7---7---7---|
|-5---5---5---5---5---5---5---5---|-7---7---7---7---7---7---7---7---|
|---------------------------------|-5---5---5---5---5---5---5---5---|


  Bm                                Dsus2
  E   E   E   E   E   E   E   E     E   E   E   E   E   E   E   E
|-7---7---7---7---7---7---7---7---|-5---5---5---5---5---5---5---5---|
|-7---7---7---7---7---7---7---7---|-5---5---5---5---5---5---5---5---|
|-7---7---7---7---7---7---7---7---|-7---7---7---7---7---7---7---7---|
|-9---9---9---9---9---9---9---9---|-7---7---7---7---7---7---7---7---|
|-9---9---9---9---9---9---9---9---|-5---5---5---5---5---5---5---5---|
|-7---7---7---7---7---7---7---7---|---------------------------------|




Solo:
Guitar-1 & -2 spiller Bro-Omkvædet som backup

 Guitar-3
  E    E   E    Q        E    E     E      +E     E   E    Q         Q.
|-----10---9----------------------------|--------10---9--------------------------|
|--------------12-------10---\5---/10---|-(10)------------12-------/14-----------|
|---------------------------------------|----------------------------------------|
|---------------------------------------|----------------------------------------|
|---------------------------------------|----------------------------------------|
|---------------------------------------|----------------------------------------|

   +E    E   E     Q        E    E     E      +E     E    E    Q       Q        E
|-------10---9-----------------------------|--------10------------------------------|
|-(14)------------12-------10---\5---/10---|-(10)--------12-------------------------|
|------------------------------------------|------------------12-------9-------10---|
|------------------------------------------|----------------------------------------|
|------------------------------------------|----------------------------------------|
|------------------------------------------|----------------------------------------|

   +E     E    E    Q        Q.             E   H                Q.
|--------10------------------------------|-----------------------------------|
|-(10)--------13---12-------10-----------|-12---9---------------10-----------|
|----------------------------------------|-----------------------------------|
|----------------------------------------|-----------------------------------|
|----------------------------------------|-----------------------------------|
|----------------------------------------|-----------------------------------|

   +E     E   E    Q        E    E     E      +E     E    E   a  Q       Q       S S
|--------10---9----------------------------|--------12---10---9h10-------9-------7s5-|
|-(10)------------12-------10---\5---/10---|-(10)------------------------------------|
|------------------------------------------|-----------------------------------------|
|------------------------------------------|-----------------------------------------|
|------------------------------------------|-----------------------------------------|
|------------------------------------------|-----------------------------------------|




Omkvæd:
Guitar-1 & -2 spiller som i det forrige omkvæd




sl*tning:
 Guitar-2 & -3
  W
|-5~-------------------------------|
|-5~-------------------------------|
|----------------------------------|
|----------------------------------|
|----------------------------------|
|----------------------------------|




The eggs you threw with eyes of dew and fall
Your talk of loom your tits in bloom and all
Sensational, imperial
The compromises you would never make-me please a man again

The door would slam
And I’ll be damned to know
That I had lost my head
And you the most sensational and rational
Of all the muses who have tried to change the hardly changeable

Don't you know there is no other one?
Take a bite of every sh*t to come
And I sure will bite it, too...
Swallow all the good in you

I couldn't keep my fingers off the phone
I ruined your sleep and happy time alone
I had to tell my personal hell -
My traffic light refused to shine and daddy fell back in the wine

Bring back the superman in me
(Clark Kent is such a nervous wreck)
Bring back the superman in me



- 30th /September /05
            
Hard to play? Try these video lessons and learn fast. | Correct




comments powered by Disqus
↑ Back to top | Tablatures and chords are parodies/interpretations of the original songs. You may use it for private study, scholarship, research or language learning purposes only