» » »

Kasabian, West Ryder Silver Bullet Tabs (ver.1)

Artists:  A B C D E F G H I J K L M N O P Q R S T U V W X Y Z # 

West Ryder Silver Bullet Tabs (ver.1)

Kasabian Tabs
 Rating:
4/5 (4 votes)
West Ryder Silver Bullet lessons Tabs too difficult? Try these video lessons and learn fast
1
                
this is a pretty easy song i think IT LOOKS ALOT BUT ITS JUST PRETTY MUCH REPEATED.
INTRO,

E|----------------------------------------------------|
B|----------------------------------------------------|
G|----------------------------------------------------|
D|----------------------------------------------------|
A|---4--4--4--4--4--4--4--4---7--7--7--7---4--4--4--4-|
E|--2-22--2-22--2-22--2-22---5-55--5-55---2-22--2-22--|

E|------------------------------------------------------|
B|------------------------------------------------------|
G|------------------------------------------------------|X2 THEN VERSE
D|------------------------------------------------------|
A|--9999-12-9-7----------------9999-12-9-7--------------|
E|-------------9-12-9-9-79-12-------------9-12-9-9-79-12|

on the verses you can play either of the following both together at the same time is how 
played on the song.

E|----------------------------------------------------|
B|----------------------------------------------------|
G|----------------------------------------------------| x4
D|----------------------------------------------------|
A|---4--4--4--4--4--4--4--4---7--7--7--7---4--4--4--4-|
E|--2-22--2-22--2-22--2-22---5-55--5-55---2-22--2-22--|

      or you could play...

E|------------------------------------------------------|
B|------------------------------------------------------|
G|------------------------------------------------------|
D|------------------------------------------------------|X8
A|--9999-12-9-7----------------9999-12-9-7--------------|
E|-------------9-12-9-9-79-12-------------9-12-9-9-79-12|


THEN SORT OF CHORUS HERE YOU PLAY TWO NOTES AT THE SAME TIME HOLD THEM FOR 4 BEATS.

E|-------------|
B|-------------|
G|-------------|
D|-------------|
A|--4----5----7|
E|--2----3----5|

STRAIGHT AFTER THAT PLAY...

E|----------|
B|----------|
G|----------|
D|----------|
A|--11-9-7-5|
E|--9--7-5-3|

AND AGAIN
E|-------------|
B|-------------|
G|-------------|
D|-------------|
A|--4----5----7|
E|--2----3----5|

STRAIGHT AFTER THAT PLAY...

E|----------|
B|----------|
G|----------|
D|----------|
A|--11-9-7-5|
E|--9--7-5-3|


THEN FOR THE "SHES MY BABY" BIT PLAY F# CHORD.

NEXT ITS THIS BIT AGAIN.
E|----------------------------------------------------|
B|----------------------------------------------------|
G|----------------------------------------------------| x2
D|----------------------------------------------------|
A|---4--4--4--4--4--4--4--4---7--7--7--7---4--4--4--4-|
E|--2-22--2-22--2-22--2-22---5-55--5-55---2-22--2-22--|

      or you could play...

E|------------------------------------------------------|
B|------------------------------------------------------|
G|------------------------------------------------------|
D|------------------------------------------------------|X4
A|--9999-12-9-7----------------9999-12-9-7--------------|
E|-------------9-12-9-9-79-12-------------9-12-9-9-79-12|


THEN PRETTY MUCH REPAEAT THE SAME BUT FOR THE VERSE.

E|----------------------------------------------------|
B|----------------------------------------------------|
G|----------------------------------------------------| x4
D|----------------------------------------------------|
A|---4--4--4--4--4--4--4--4---7--7--7--7---4--4--4--4-|
E|--2-22--2-22--2-22--2-22---5-55--5-55---2-22--2-22--|

      or you could play...

E|------------------------------------------------------|
B|------------------------------------------------------|
G|------------------------------------------------------|
D|------------------------------------------------------|X8
A|--9999-12-9-7----------------9999-12-9-7--------------|
E|-------------9-12-9-9-79-12-------------9-12-9-9-79-12|

E|-------------|
B|-------------|
G|-------------|
D|-------------|
A|--4----5----7|
E|--2----3----5|

STRAIGHT AFTER THAT PLAY...

E|----------|
B|----------|
G|----------|
D|----------|
A|--11-9-7-5|
E|--9--7-5-3|

AND AGAIN
E|-------------|
B|-------------|
G|-------------|
D|-------------|
A|--4----5----7|
E|--2----3----5|

STRAIGHT AFTER THAT PLAY...

E|----------|
B|----------|
G|----------|
D|----------|
A|--11-9-7-5|
E|--9--7-5-3|

E|----------------------------------------------------|
B|----------------------------------------------------|
G|----------------------------------------------------| x4
D|----------------------------------------------------|
A|---4--4--4--4--4--4--4--4---7--7--7--7---4--4--4--4-|
E|--2-22--2-22--2-22--2-22---5-55--5-55---2-22--2-22--|

      or...

E|------------------------------------------------------|
B|------------------------------------------------------|
G|------------------------------------------------------|
D|------------------------------------------------------|X8
A|--9999-12-9-7----------------9999-12-9-7--------------|


SEE PRETTY EASY- SO THERE!
            
Submit corrections

comments powered by Disqus
↑ Back to top | Kasabian Tabs for West Ryder Silver Bullet. Lyrics for acoustic guitar and electric guitar. 1 Tablatures and chords are parodies/interpretations of the original songs. You may use it for private study, scholarship, research or language learning purposes only