» » »

Kasabian, British Legion Tabs (ver.1)

Artists:  A B C D E F G H I J K L M N O P Q R S T U V W X Y Z # 

British Legion Tabs (ver.1)

Kasabian Tabs
Rating:
4/5 (8 votes)
British Legion lessons Tabs too difficult? Try these video lessons and learn fast
                -------------------------------------------------------------------------------
                             British Legion
-------------------------------------------------------------------------------

Tuning: Standard

Note: I dont think this tab is 100% correct, but its almost there. This is based on the 

during the verses, there some slight changes here and there, and although I am not going 
tab all of them, there are really easy to hear during the song.

Intro/Verses
e|---------------------------------------------------------------------------|
B|---3---3-------3----3p2----3---3---2---3---3---0-------0-------0-----1-----|
G|-----------0---------------------------------------0-------0-------------0-|
D|---------------------------------------------------------------------------|
A|-2---2---2---2---2-------2---2---2---2---2---2---2---2---2---2-----3---3---|
E|---------------------------------------------------------------------------|

e|------------------|
B|---1---1---1p0----|
G|------------------|
D|------------------|
A|-3---3---3--------|
E|------------------|x2(above as well)

This is the part when "She bring the light..." is sang (about 0:30)

e|---------------------------------------------------------------------------|
B|---0---0-------0---0---2-------2---2---2---1---1---1---1---1---1-------1---|
G|-----------0---------------0---------------------------------------0-------|
D|---------------------------------------------------------------------------|
A|-2---2---2---2---2---0---0---0---0---0---3---3---3---3---3---3---3---3-----|
E|---------------------------------------------------------------------------|

e|------------|
B|------------|
G|---0----0---|
D|------------|
A|-3---3------|
E|------------|

Then Repeat the Whole thing again.

Pre Chorus

  "I   guess      you know   to keep on         dancing  like I know you can"
e|-1---1----1--2--3---1--x------1----1----1--2--3--1-------------------------|
B|-3---1----3--4--5---3--x------3----1----3--4--5--3-------------------------|
G|-3---2----3--4--5---3--x------3----2----3--4--5--3-------------------------|
D|-3---3----3--4--5---3--x------3----3----3--4--5--3-------------------------|
A|-1---3----1--2--3---1--x------1----3----1--2--3--1-------------------------|
E|-----1-----------------x-----------1---------------------------------------|
                (scratch a couple of times)        (let ring)

For the Chorus, Im not sure if all the chords are bar chords, but it sounds better to 
the normal chords if you are playing it by yourself.

Chorus
G           Bm      Em       C           Em        A
We're gonna make it through, we're gonna make it through now
        G           Bm      Em       C           Em        A
(Cause) We're gonna make it through, we're gonna make it through now
        C       Em         A
And the circus leave this town

G           Bm      Em       C           Em        A
We're gonna make it through, we're gonna make it through now
G           Bm      Em       C           Em        A
We're gonna make it through, we're gonna make it through now
        C       Em       A
And the boys with their dreams
        C       Em      A
For the boys and their dreams

I know you can hear me

there is another guitar playing over the top of the chorus, but im not going to tab it.

Outro

(practically the same as the intro/verses, but some small changes)
e|---------------------------------------------------------------------------|
B|---3---3---3----3----3p2----3---3---2---3---3---0-------0-------0-----1---1|
G|--------------------------------------------------0-------0----------------|
D|---------------------------------------------------------------------------|
A|-2---2---2---2---2-------2---2---2---2---2---2---2---2---2---2-----3---3---|
E|---------------------------------------------------------------------------|

e|------------------|
B|---0---1---1p0----|
G|------------------|
D|------------------|
A|-3---3---3--------|
E|------------------|

e|---------------------------------------------------------------------------|
B|---3---3---3----3----3p2----3---3---2---3---3---0-------0-------0-----1---0|
G|--------------------------------------------------0-------0----------------|
D|---------------------------------------------------------------------------|
A|-2---2---2---2---2-------2---2---2---2---2---2---2---2---2---2-----3---3---|
E|---------------------------------------------------------------------------|

e|------------------|
B|---1---0---1p0----|
G|------------------|
D|------------------|
A|-3---3---3--------|
E|------------------|

end on
e|---|
B|-3-|
G|-0-|
D|-0-|
A|-2-|
E|-3-|

and there you have it, great song and nice and easy to play.
any correction please email them to me.

| /  slide up
| \  slide down
| h  hammer-on
| p  pull-off
| ~  vibrato
| +  harmonic
| x  Mute note
===============================================================================
            

comments powered by Disqus
↑ Back to top | Kasabian Tabs for British Legion. Lyrics for acoustic guitar and electric guitar. Tablatures and chords are parodies/interpretations of the original songs. You may use it for private study, scholarship, research or language learning purposes only