>
 >
Umbra

Umbra Guitar Tabs

Karnivool - Umbra chords, tabs, tablatures, lyrics

Guitar lessons | Add/correct | Request | Top 50 tabs Artists:  A B C D E F G H I J K L M N O P Q R S T U V W X Y Z 0-9

Umbra Guitar Tabs – Karnivool

CD, Sheet music, Poster

Do you like Umbra? Share with your friends now
Bass TabsTabs
------------------------------------------------------------
------------------------------------------------------------

Tuning B F# B G B e

This is all i have come up with so far. damn this song is hard to
figure out!! any help would be great.

Chords at the start
e |---9------6--------------|
B |---x------x-----7--------|
G |---8------8-----8--------|
B |-------------------------|
F#|-------------------------|
B |-------------------------|
Intro
e |-------------------|
B |-------------------|
G |-------------------|x3
B |--------0~~--------|
F#|-----5~------------|
B |--5~---------------|
bit just before verse
e |-------------0/-0-0~------|
B |-------------2/-5-1~------|
G |-------------1/-4-0~------|
B |--------------------------|
F#|-----5--------------------|
B |--5------2----------------|

Verse
1:26
e |-------------------------------|
B |-----0-----0-----0-----0-------|
G |---8-----8-----8-----8---------|
B |-9-----9-----9-----9-----------|
F#|-------------------------------|
B |-------------------------------|
1:36
e |-------------------------------|
B |-------------------------------|
G |-----6p4---6p4---6p4---6p4-----|
B |---5-----5-----5-----5---------|
F#|-------------------------------|
B |-------------------------------|
1:40
e |----------------------------|
B |-----0-----0-----0-----0----|
G |---8-----8-----8-----8------|
B |-9-----9-----9-----9--------|
F#|----------------------------|
B |----------------------------|
1:50
e |--------0------------------------|
B |-----------------0---------------|
G |----8--------8--------8---9------|
B |--9---9----9---9----9---9--------|
F#|---------------------------------|
B |---------------------------------|
1:54
e |----------------------|
B |----------------------|
G |-----4----6--8--------|
B |---5---5--------7-----|
F#|----------------------|
B |----------------------|
      . . .
1:57
e |-----------------------------|
B |-----0-----0-----0-----0-----|
G |---8-----8-----8-----8-------|
B |-9-----9-----9-----9---------|
F#|-----------------------------|
B |-----------------------------|
    . . . . . . . . . . . .
2:05
e |-------------------------------------------|
B |-------------------------------------------|
G |----8-11p9p8\6----6p4---6p4---6p4---6p4----|
B |--9-------------5-----5-----5-----5--------|
F#|-------------------------------------------|
B |-------------------------------------------|
2:11
e |-----------------------------|
B |-----0-----0-----0-----0-----|
G |---8-----8-----8-----8-------|
B |-9-----9-----9-----9---------|
F#|-----------------------------|
B |-----------------------------|
    . . . . . . . . . . . .
2:15
e |-------------------|
B |-------------------|
G |----8-11p9p8\6-----|
B |--9----------------|
F#|-------------------|
B |-------------------|
2:16
e |-----------------------------|
B |-----0-----0-----0-----0-----|
G |---8-----8-----8-----8-------|
B |-9-----9-----9-----9---------|
F#|-----------------------------|
B |-----------------------------|
    . . . . . . . . . . . .
2:19
e |---------------------|
B |-------0---9---------|
G |-----8---8---8-------|
B |---9-----------------|
F#|---------------------|
B |---------------------|
part of the chorus
e |--------11--------------11-------------------|
B |-----12----12---9p7h9p7----9p7h9-7-9-7-------|
G |--------------8------------------------------|
B |---9-----------------------------------------|
F#|---------------------------------------------|
B |---------------------------------------------|

the second verse is pretty much the same

here are the chords for the second chorus\

  "wake me with a bottle cross the head"
e |-----------------------------------------|
B |-----------------------------------------|
G |-----------------------------------------|
B |--9~-9~-9~-5-7/10-9~-9~------------------|
F#|--9~-9~-9~-5-7/10-9~-9~------------------|
B |--9~-9~-9~-5-7/10-9~-9~------------------|
   "i'll sleep til its over..."
e |--------------|
B |--------------|
G |--------------|
B |--8-9--5-9----|
F#|--6-7--5-9----|
B |-------5-9----|
   "hey..."
e |----------------------------|
B |----------------------------|
G |----------------------------|
B |--5~-9~-7-8~-9~--8-9--5-7---|
F#|--5~-9~-5-8~-9~--6-7--5-7---|
B |--5~-9~---8~-9~-------5-7---|

THE SOLO!!!!   
play this twice, listen to the song for the timing.

e |----------------------------------------|
B |----------------------------------------|
G |---------8------8--6------------8-------|
B |-------9---9--------------9---------9---|
F#|--7h10--------7--7---7-10---10---10-----|
B |----------------------------------------|
                 .  .   .      
e |----------------------------------------|
B |----------------------------------------|
G |--------8---6---------------------------|
B |----9-----------7--9--------------------|
F#|--7---7---7---7--7---7-7----------------|
B |----------------------------------------|
     .   .   .   .  .   . .

and here's part of the bridge
 "i lay this troubled sinner..."
e |------------------------------|
B |------------------------------|
G |------------------------------|
B |------------------------8-9---|
F#|--2-5-7-5/9~-999--2~-5--6-7---|
B |--2-5-7-5/9~-999--2~-5--------|
     . . . .
    "now you live for..."
e |----------------------------|
B |----------------------------|
G |----------------------------|
B |--777-8-9-888-999--5~-7~----|
F#|--555-8-9-666-777--5~-7~----|
B |------8-9----------5~-7~----|

   "a wasted moment...set in stone and blood"
e |---------------------------|
B |---------------------------|
G |---------------------------|
B |--999999-0~----------------|
F#|--999999-0~--222222--5h7---|
B |--999999-0~--222222--5h7---|
   "hold your promise..."
e |----------------------------------|
B |----------------------------------|
G |----------------------------------|
B |--999999-0~-----------------------|
F#|--999999-0~-22---------h5-5-7-9---|
B |--999999-0~-22-2h3p2p0-h5-5-7-9---|

I know this tab sucks and needs alot of work. It's a start though.
If anyone has other parts of the song please email them to me.


| . palm mute
| /  slide up
| \  slide down
| h  hammer-on
| p  pull-off
| ~  vibrato
| +  harmonic
| x  Mute note
=========================================================





Comments


Popular Karnivool tabs & chords
All I Know 3 Bass Tabs
Eidolon Bass Tabs
Umbra Bass Tabs
All I Know Tabs
Cote Tabs
Deadman 1 Tabs
Roquefort Intro Tabs
Scarabs Tabs
Shutterspeed Tabs
Themata Intro Tabs


Song lyrics



↑ Back to top | Tablatures and chords are parodies/interpretations of the original songs. You may use it for private study, scholarship, research or language learning purposes only
© 2014 AZChords.com Contact us | Privacy policy | DMCA | Add/correct tabs | Request tabs | Top 50 tabs