>
 >
The Caudal Lure

The Caudal Lure Bass Tabs

Karnivool - The Caudal Lure chords, tabs, tablatures, lyrics

Guitar lessons | Add/correct | Request | Top 50 tabs Artists:  A B C D E F G H I J K L M N O P Q R S T U V W X Y Z 0-9

The Caudal Lure Bass Tabs – Karnivool

CD, Sheet music, Poster

Do you like The Caudal Lure? Share with your friends now
Bass Tabs
Jon normally uses an alternate tuning, but this has been tabbed for a 6-string bass in 
standard tuning. If you have a 4 or 5-string this tab can still help you (you might have 
to play up or down an octave in some places).

Karnivool - The Caudal Lure (Bass tab)
                                        “Ask the question…”
C|----------------------------------| ----------------------------|
G|----------------------------------|o----------------------------|
D|----------------------------------| ----------------------------|
A|-------2--------------------------| ----------------------------|
E|4--------3-------3----------------|o-4--4--4--7-x-4-----7-x-4---|
B|--------------------5------2----1-| ------------------5---------|

C|---------------------------------------- |
G|----------------------------------------o|
D|---------------------------------------- |
A|---------------------------------------- |
E|4--4--7-x-4--4--4--3--3-x-3-------------o|
B|-----------------------------5--5-x-55-- |

C| -----------------------------------------------------------------|
G|o-----------------------------------------------------------------|
D| -----------------------------------------------------------------|
A| -----------------------------------------------------------------|
E|o4--4--4--7-x-4--4--4--7--7-7-4--4--4--7--7-4--4--4--7--7-7-3--3--|
B| -----------------------------------------------------------------|

C|------ |
G|------o|
D|------ |
A|------ |
E|3-----o|
B|---555 |

C|--------------------------------------------|
G|--------------------------------------------|
D|--------------------------------------------|
A|--------------------------------------------|
E|-------------------74--4-x-x-4--4--4--------|
B|2--2--2---2--2--2--------------------x-xx0--|

C|----------------------------------------------|
G|----------------------------------------------|
D|----------------------------------------------|
A|---------------------------------2---------6\-|
E|------------------xx74--4-x-x-4-----4---------|
B|2--2--2--xx2--2--2---------------------0-00---|

C|------------------------------------|
G|------------------------------------|
D|------------------------------------|
A|------------------------------------|
E|----------------------------5--5--5-|
B|2--2--2--xx2--2--2xxx5--5-----------|

C|------------------------------------------------------------------------|
G|--------------------------------------------------------5---5---5---5---|
D|-----------6--------------------------------------6------5---5---5---5--|
A|-------------6--------------------------------------6--2---2---2---2----|
E|47747474474----447h4p447h4p447h4p47-4-7-4747474747----3---3---3---3---3-|
B|------------------------------------------------------------------------|

         “Hold your nerve…”
C|----------------------------------------------------------------|
G|----------------------------------------------------------------|
D|----------------------------------------------------------------|
A|--------------------------------------------6666----------------|
E|44444444444477774444444444447777333333333333----4444444444447777|
B|----------------------------------------------------------------|

C|--------------------------------|
G|--------------------------------|
D|--------------------------------|
A|4444444444444444----------------|
E|----------------0000000033333333|
B|--------------------------------|

C|---------11-----------------14---11-----------------14------------------|
G|-----------13------------------------------------------11---------------|
D|------------------------------------------------------------------------|
A|11--11-11-----11-11-11-11-11-------11-11-11-11-11-11-----11-11-10-10-10-|
E|------------------------------------------------------------------------|
B|------------------------------------------------------------------------|

C|11---------------11-----------------14---11-----------------14------------|
G|----12-------------13------------------------------------------11---------|
D|--------------------------------------------------------------------------|
A|--------11--11-11-----11-11-11-11-11-------11-11-11-11-11-11-----11-11-10-|
E|--------------------------------------------------------------------------|
B|--------------------------------------------------------------------------|




C|------11\-|
G|------12\-|
D|----------|
A|10-10-----|
E|----------|
B|----------|

C|--------------------------------------------|
G|--------------------------------------------|
D|--------------------------------------------|
A|--------------------------------------------|
E|-------------------74--4-x-x-4--4--4--------|
B|2--2--2---2--2--2--------------------x-xx0--|

C| --------------------------------------------- |
G|o---------------------------------------------o|
D| --------------------------------------------- |
A| --------------------------------------------- |
E|o------------------xx74--4-x-x-4--4--4--------o|
B| 2--2--2--xx2--2--2--------------------x-xx0-- |


C|-------------------------------------------|
G|-------------------------------------------|
D|-------------------------------------------|
A|-------------------------------------------|
E|--------------------------xx5-75-755-755-75|
B|2--2--2--xx2--2--2---5--5------------------|

“Ask the question…”
C|--------------------------------------------------------------------------|
G|--------------------------------------------------------------------------|
D|--------------------------------------------------------------------------|
A|-----------------------------------------6666-----------------------------|
E|--------77774--4--4--7--7-4-4777733333333----4--4--4--7--7-4--4--4--7--7-7|
B|--------------------------------------------------------------------------|

C|----------------------------------------------------------------------|
G|----------------------------------------------------------------------|
D|----------------------------------------------------------------------|
A|----------------------------------6666----------------------------4444|
E|3333334--4--4--4--4777-73333333333----4--4--4--4--4777-7-733333333----|
B|----------------------------------------------------------------------|

C|--------------------------------------------|
G|--------------------------------------------|
D|--------------------------------------------|
A|--------------------------------------------|
E|-----------------xx74--4-x-x-4--4--4--------|
B|2--2--2-xx2--2--2--------------------x-xx0--|

C|--------------------------------------------|
G|--------------------------------------------|
D|--------------------------------------------|
A|--------------------------------2--------6\-|
E|-----------------xx74--4-x-x-4-----4--------|
B|2--2--2-xx2--2--2--------------------0-00---|

C|---------------------------------------|
G|---------------------------------------|
D|---------------------------------------|
A|---------------------------------------|
E|------------------------------3----3-2-|
B|2--2--2--xx2--2--2xxx5--5--5-----------|

3:32
C|---------------------------------------------------------------------|
G|---------------------------------------------------------------------|
D|---------------------------------------------------------------------|
A|---------------------------------------------------------------------|
E|------------------02--2---2--2--2--2--xx0--------------------02--2---|
B|0--0--0---0--0--0--------------------------0--0--0---0--0--0---------|

C|----------------------------------------------------------------|
G|----------------------------------------------------------------|
D|-----------------------------------------------------4------42--|
A|---4------------------------------------------------------------|
E|2-----2--2--220-----------------------2--2--2-22--2-----2-x-----|
B|-----------------0--0--0---0--0--0-203--------------------------|

C|----------------------------------------|
G|----------------------------------------|
D|----------------------------------------|
A|2--2--2---2--2--2--x5--5----------------|
E|-------------------------x-x3-------3-2-|
B|----------------------------------------|

4:01
C|----------------------------------------------------------|
G|----------------------------------------------------------|
D|----------------------------------------------------------|
A|-------------------------------------------7--------------|
E|----------------7-5----------------------7----7-----------|
B|0---3---1---0-------0---3---1---5-5-5--5--------5-3---1---|

C|-------------------------------------------------------------------------|
G|-------------------------------------------------------------------------|
D|-------------------------------------------------------------------------|
A|-------------------------------7-----------------------------------------|
E|----7-5----------------------7----7---------------3-2-----------------7-5|
B|0-0-----0---3---1---5-5-5--5--------5-3-3-1---0-------0---3---1---0------|

C|-----------------------------------------------------------------|
G|-----------------------------------------------------------------|
D|-----------------------------------------------------------------|
A|-----------------------7-----------------------------------------|
E|---------------------7----7--------------------------------------|
B|0---3---1---5-5-5--5--------5-3---1---0--------------------------|

4:53
C|----11---9----11--11-9--11--------------9/-11-9----|
G|7---11---9----11--11-9--11--11---11-----11/12-11---|
D|9---12---10---9---9--7--9---12---------------------|
A|---------------------------------------------------|
E|---------------------------------------------------|
B|---------------------------------------------------|

                                    lightly tap x
C|----11---9----11--11-9--11--9-------------x11x9--|
G|7---11---9----11--11-9--11--11---12-------x12x11-|
D|9---12---10---9---9--7--9---12-------------------|
A|-------------------------------------------------|
E|-------------------------------------------------|
B|-------------------------------------------------|

C|6---11---9----11--11-9--11--------------9/-11-9----|
G|7---11---9----11--11-9--11--11---11-----11/12-11---|
D|9---12---10---9---9--7--9---12---------------------|
A|---------------------------------------------------|
E|---------------------------------------------------|
B|---------------------------------------------------|

                                                  lightly tap x
C|--------------------------------11----9--------|
G|7---11---9----11--11-9--11--9---9-----9--------|
D|9---12---10---9---9--7--9---9---9-----9--------|
A|-----------------------------------------x10x9-|
E|-----------------------------------------------|
B|-----------------------------------------------|

C| ----------------------------- |
G|o-----------------------------o|
D| ----------------------------- |
A| ----------------------------- | X6
E|o-----------------------------o|
B| 0--3--1-0--3--1--5----5--8-7- |





Comments


Popular Karnivool tabs & chords
All I Know 3 Bass Tabs
The Medicine Wears Off Bass Tabs
C.O.T.E 1 Tabs
Change Tabs
Deadman Tabs
Illlumine Tabs
Set Fire To The Hive Tabs
Sewn And Silent 2 Tabs
Shutterspeed Tabs
Themata Tabs


Song lyrics



↑ Back to top | Tablatures and chords are parodies/interpretations of the original songs. You may use it for private study, scholarship, research or language learning purposes only
© 2014 AZChords.com Contact us | Privacy policy | DMCA | Add/correct tabs | Request tabs | Top 50 tabs