» » »

Karnivool, Some More Of The Same Tabs (ver.1)

Artists:  A B C D E F G H I J K L M N O P Q R S T U V W X Y Z # 

Some More Of The Same Tabs (ver.1)

Karnivool Tabs
 Rating:
4.2/5 (5 votes)
Some More Of The Same lessons Tabs too difficult? Try these video lessons and learn fast
                -----------------------------------------------------------------
-----------------------------------------------------------------

Tuning: B F# B G B E

This is only the first half of the song.

Intro
E |-----------------|
B |-----------------|
G |-----------------|
B |--101010101010---|
F#|--8-8-8-8-8-8----|
B |--8-8-8-8-8-8----|


E |-------------------------------------------------------|
B |-------------------------------------------------------|
G |-------------------------------------------------------|
B |--------------------------------------10101010101010---|
F#|--0-0-3p2-2-0-0-0-3p2-2-0--0-3p2-2-0--10101010101010---|
B |--0-0-3p2-2-0-0-0-3p2-2-0--0-3p2-2-0--8-8-8-8-8-8-8----|
       .           .          . 

bit before verse
E |-----------------------------------------------|
B |-----------------------------------------------|
G |------4~~---/7-6-2-----------------------------|
B |-----------------------------------------------|
F#|--0~-------------------------------------------|
B |--0~-------------------------------------------|

verse
E |----------------------------------------------------------|
B |----------------------------------------------------------|
G |----------------------------------------------------------|x1
B |--------7*-----------7*-----------7*----5*---------5*-----|
F#|--000-----5*----000----5*----000-----5*-----000--5*-------|
B |--000-------5*--000------5*--000------------000-----------|
     ...           ...          ...            ...

E |-----------------------------------------------------------|
B |-----------------------------------------------------------|
G |-------------------------------------------------------5*--|x1
B |--------7*-----------7*-----------7*----5*-------7*-5*-----|
F#|--000-----5*----000----5*----000-----5*-----000------------|
B |--000-------5*--000------5*--000------------000------------|
     ...           ...          ...            ...


E |----------------------------------------------------------|
B |----------------------------------------------------------|
G |----------------------------------------------------------|x2
B |------7*-----------7*----5*--------------------7*---------|
F#|--000---5*----000-----5*----888-----7*-5*--888----5*------|
B |--000-----5*--000-----------888--5*--------888-------5*---|
     ...         ...           ...            ...

E |-------------------------------------------------------|
B |-------------------------------------------------------|
G |-------------------------------------------------------|
B |--------------------------------------10101010101010---|
F#|--0-0-3p2-2-0-0-0-3p2-2-0--0-3p2-2-0--10101010101010---|
B |--0-0-3p2-2-0-0-0-3p2-2-0--0-3p2-2-0--8-8-8-8-8-8-8----|
       .           .          .        



2nd verse
E |----------------------------------------------------------|
B |----------------------------------------------------------|
G |----------------------------------------------------------|x1
B |--------7*-----------7*-----------7*---------------5*-----|
F#|--000-----5*----000----5*----000-----5*-----000--5*-------|
B |--000-------5*--000------5*--000-------5*---000-----------|
     ...           ...          ...            ...


E |-------22-21-------------22-21------------22-21-------------------|
B |-------------22\\\\------------22\\\\-----------22----------------|
G |------------------------------------------------------------------|
B |--------------------------------------------------------7*--------|
F#|--000----------------000--------------000-----------000----5*-----|
B |--000----------------000--------------000-----------000-------5*--|



| .  palm mute
| /  slide up
| \  slide down
| h  hammer-on
| p  pull-off
| ~  vibrato
| +  harmonic
| x  Mute note
==================================================================
            
Submit corrections

comments powered by Disqus
↑ Back to top | Karnivool Tabs for Some More Of The Same. Lyrics for acoustic guitar and electric guitar. Tablatures and chords are parodies/interpretations of the original songs. You may use it for private study, scholarship, research or language learning purposes only