>
 >
New Day

New Day Bass Tabs

Karnivool - New Day chords, tabs, tablatures, lyrics

Guitar lessons | Add/correct | Request | Top 50 tabs Artists:  A B C D E F G H I J K L M N O P Q R S T U V W X Y Z 0-9

New Day Bass Tabs – Karnivool

CD, Sheet music, Poster

Do you like New Day? Share with your friends now
Bass TabsTabs
This tab is made for a 6 string bass, but for the most part is easy to transcibe
to a 4 or 5 string (5 or 6 string recommended though). It has been done in
standard tuning as opposed to the unique "Karnivool tuning". It's a pretty
meticulous tab, i spent a lot of time getting each individual rhythm and note
down, so if you want to learn the whole song this is the bass tab for you :D

New Day – Karnivool
“…not see me…”
C|-------------|----------------------------------13-----11-----14-----13--|
G|-------------|-------------------------------11-----11-----11-----11-----|
D|-------------|-----------------------------------------------------------|
A|-------------|------------2----------------------------------------------|
E|2---4--------|2---4---5---------------7----------------------------------|
B|--------3----|----------------3---5--------------------------------------|

C|---13-----11-----------9-------13-----11-----14-----13-----13-----11-----|
G|11-----11-----11-9--11---11-11-----11-----11-----11-----11-----11-----11-|
D|-------------------------------------------------------------------------|
A|-------------------------------------------------------------------------|
E|-------------------------------------------------------------------------|
B|-------------------------------------------------------------------------|


(This next section may be two-handed tapping or possibly just a delay effect, this is my 
approach to if it is two-handed tapping, just in case)

        “One, more, step, it’s here waiting for you…”
C|-----| ------------------------------------------------------------|
G|9b---| ------------------------------------11-9----11-9------------|
D|-----|O-----------------------------------------12-11---12-11------|
A|-----| ------------------------------------------------------------|
E|-----|O------------------------------------------------------------|
B|-----| 7-7--7-7--7-7--7-7-5-7-7--7-7--7-7----x--x--7-7--7-7--7-7---|

C|--------------------------------------------------------------------|
G|--------------------------------------------------------------------|
D|--------9-11-9-11---------------------------------------------------|
A|----------------------------5-5--5-5--5-5--5-5-7--------------------|
E|------9------------------5-----------------------7-7--7-7--7-7--7---|
B|--7-5---7-7--7-7--7-7--7------------------------------------------5-|

 1___________________________________________
                                             |
C|------------------------------------------ |
G|------------------------------------------ |
D|------------------------------------------O|
A|------------------------------------------ |
E|---------------------5-5--5--7------------O|
B|7-7--7-7--7-7--7-7-7-----------5-5--5--5-- |

2_____________________________________________
                                              |
C|--------------------------------------------|
G|--------------------------------------------|
D|--------------------------------------------|
A|--------------------------------------------|
E|-----------4--4-4-4-4-5--5-5-5-5-7--7-7-7-7-|
B|7--7-7-7-7----------------------------------|

C|-------------------------------------------------------------------------|
G|-------------------------------------------------------------------------|
D|---------------------------------------------------------------7-7--7--9-|
A|5-5--5-5--5-5--5-5-7--------------------7-5-5--5-5--5-5--5-5-7-----------|
E|---------------------7-7--7-7--7-7--7-7----------------------------------|
B|-------------------------------------------------------------------------|

C|--------------------------------------------------------------------------|
G|--------------------------------------------------------------------------|
D|-------------------------------------------------------7-7--7-7--7-7--7-7-|
A|7-7--7--7-5-5--5-5--5-5--5-5-5--------------------------------------------|
E|-------------------------------7-7-7-7-7-7-7-7-7-7-7-7--------------------|
B|--------------------------------------------------------------------------|

C|-----------------------|
G|-----------------------|
D|6p---------------------|
A|--7-7--7-7--7-7--7-7-7-|
E|-----------------------|
B|-----------------------|

C|------------------------------------------14-13----14-13-------------|
G|------------------------------------11-14-------11-------11----------|
D|---------------------------------------------------------------------|
A|9-9--9-9--9-9--9-9-7-9-9--9-9--9-9--x--x----------9--9-9--9-9--9-9-7-|
E|---------------------------------------------------------------------|
B|---------------------------------------------------------------------|

C|-------------------|
G|-------------------|
D|-------------------|
A|7/9--7-9-x-x-9-----|
E|-------------------|
B|---------------7---|

“One…more…step…”                                                        “So…”
C|--------------------------------------------------------------------------|
G|--------------------------------------------------------------------------|
D|----------------------------7-9--7----------------------------------------|
A|------------------9------7-9-------5--7----7-9-7--------------------------|
E|----------------------------------------7--------7----------5--5-7--------|
B|7--------x-5--7------------------------------------7--7-7----------5--5-5-|

“…break down…”
C|------------------------------------------------------------------------|
G|------------------------------------------------------------------------|
D|------------------------------------------------------------------------|
A|---------------------------------------------7-9-7----------------------|
E|---------------------------------------------------10--10-10-----10--7--|
B|7-7-0-5-7--7--7-7-77-77-77-77-77-77-77-77-77------------------7---------|

C|-----------------------------------------------------------|
G|-----------------------------------------------------------|
D|-----------------------------------------------------------|
A|-----------------------------------------------------------|
E|7--7-7------------------------7-7--------------------------|
B|-------7-10--7--9-9-10--10-10------------------------------|
                                  ^Figure out bass run

C|--------------------------------------------------------------------------|
G|--------------------------------------------------------------------------|
D|--------------------------------------------------------------------------|
A|---/5---2--------------7-9h-7--------------/5---2-------------------------|
E|----------------5---------------------------------------5-----------------|
B|3-----------0-------------------5-x-5-5-3-----------0----------5-5-55-5-5-|

C|14---13-----14----------16----------11---13-----14-13-11-13-----|
G|-----------------11----------11---------------------------------|
D|----------------------------------------------------------------|
A|----------------------------------------------------------------|
E|----------------------------------------------------------------|
B|----------------------------------------------------------------|

C|14----------------------------------|
G|-----11------13---14----------------|
D|------------------------------------|
A|------------------------------------|
E|-----------------------7*-----------|
B|---------------------------7*-------|

3:23
C| ---13-------13-------13-------13-------13-------13-------13-------13----|
G| ------14-------14-------14-------14-------14-------14-------14-------14-|
D|o12-------12-------12-------14----------------------------------14-------|
A| ------------------------------------14-------14-------14----------------|
E|o------------------------------------------------------------------------|
B| ------------------------------------------------------------------------|

C|---13-------13-------13-------13-------13-------13-------13-------13------|
G|------14-------14-------14-------14-------14-------14-------14-------14---|
D|12-------12-------12-------14---------------------------------------------|
A|------------------------------------12-------12----14h--------------------|
E|------------------------------------------------------12-------12---------|
B|--------------------------------------------------------------------------|

C|---13-------13-------13-------13-------13-------13-------13-------13----|
G|------14-------14-------14-------14-------14-------14-------14-------14-|
D|12-------12-------12-------14-------------------------------------------|
A|------------------------------------14-------14-------14-------14-------|
E|------------------------------------------------------------------------|
B|------------------------------------------------------------------------|

C|---11-------11-------11-------11-------11----------------------------- |
G|------13-------13-------13-------13-------13---16-------14-------13--- |
D|----------------------------------------------------------------------o|
A|12-------12-------12-------12----14h---------------------------------- |
E|------------------------------------12-------12-------12-------12-----o|
B|---------------------------------------------------------------------- |

C|----------------------------------------------|
G|----------------------------------------------|
D|--------------------------------9--7--6-------|
A|--------------------7-------------------------|
E|----------------------------------------------|
B|7-------5---7-----------7---------------------|

“Are we waiting”
C|------------------------------------------------------------------------|
G|------------------------------------------------------------------------|
D|------------------------------------------------------------------------|
A|------------------------------------------------------------------------|
E|-----------------------5-----------------------------------------5------|
B|5---7--7--7--7--7---5-----7---77---777---78--5--7---77---7---75-----7---|

                       4.30
C|--------------------| ---------------------------------------------- |
G|--------------------| ---------------------------------------------- |
D|--------------------|o----------------------------------------------o|
A|--------------------| ---------------------------------------------- |
E|--------------------|o----------------------------------------------o|X6
B|77-7-7-77-7-7-8-8-8-| 5-7-5-7---5-7-5-7b8b7---5-7-5-7--7-1-1-1-1-1-- |
 
C|----------------------------|
G|----------------------------|
D|----------------------------|
A|----------------------------|
E|1--1--1-1--1--1-------------|
B|----------------1--1--1--1--|

C| ---------------------------------------------- |
G| ---------------------------------------------- |
D|o----------------------------------------------o|
A| ---------------------------------------------- |
E|o----------------------------------------------o|
B| 5-7-5-7---5-7-5-7b8b7---5-7-5-7--7-1-1-1-1-1-- |

C|----------------------------|
G|----------------------------|
D|----------------------------|
A|----------------------------|
E|1--1--1-1--1--1-------------|
B|----------------1--1--1--1--|

5.25
C|18-16p-18h------------------------------------------------------|
G|----------------------------------------------------------------|
D|----------------------------------------------------------2-2-2-|
A|----------------5-5-5-5-5-5-5-5-5-5-5-5-2-2-2-2-2-2-2-2-2-------|
E|----------------------------------------------------------------|
B|----------------------------------------------------------------|

C|------------------------------------------------------------------------|
G|------------------------^-^---^-^---------------------------------------|
D|------------------------7-7-7-7-7-9-------------------------------------|
A|5-5-5-5-5-5-5-5-5-5-5-7-------------7-7-7-7-7-7-5-5-5-5-5-5-5-5-5-5-5-5-|
E|------------------------------------------------------------------------|
B|------------------------------------------------------------------------|

C|------------------------------------------------------------------------|
G|------------------------------------------------------------------------|
D|------------------------------------------------------------------------|
A|2-2-2-2-2-2-2-2-2-2-2-2-------------------------------------2-2-2-2-2-2-|
E|------------------------2-2-2-2-2-2-4-4-4-4-4-4-------------------------|
B|------------------------------------------------3-3-3-3-3-3-------------|

5.44 “It’s a new day” “24h”=2nd fret 4th fret not 24th fret
C|----------------------------------------------------------------|
G|----------------------------------------------------------------|
D|----------------------------------------------------------------|
A|-------------------------------2-2-2-2-2-2----------------------|
E|2--2-2--2-24h4-4-4-4-----------------------2--2-2--2-24h4-4-4-4-|
B|---------------------3--3-3--3----------------------------------|

C|-------------------------------------------------------------|
G|-------------------------------------------------------------|
D|-------------------------------------------------------------|
A|----------2-2-2-2-2-2--------------------5555--5-2-2-2-2-2-2-|
E|----------------------2222--2-24h4-4-4-4---------------------|
B|3--3-3--2----------------------------------------------------|

C|--------------------------------------------------------------------------|
G|--------------------------------------------------------------------------|
D|--------------------------------------------------------------------------|
A|------------------------------------------------------------------------4-|
E|2--2-2-2-2-4--4-4-4-4-5--5-5-5-5-7h7-7-7-7-7------------------7--7-5-7----|
B|---------------------------------------------3--3-335--5-5--5-------------|

C|--------------|
G|--------------|
D|--------------|
A|5---5---------|
E|--5-----------|
B|------5-5-55--|

6.15
C|--------------------------------------------------------------------------|
G|--------------------------------------------------------------------------|
D|----------------------------------7-9h-7----------------------------4-----|
A|------------------------------7-9h-------5-55--5--2--2--2-----------------|
E|----------------5------------------------------------------5--2--2-----2--|
B|x-7---7---7---5---7---7---7------------------3----------------------------|

C|---------------------------------------------------------------------|
G|---------------------------------------------------------------------|
D|---------------------------------------------------------------------|
A|-----------------------------------------------9------9--------------|
E|5--5-7-------------------------------5-----------------------4-75--7-|
B|-------5-555-7--7-7-7--7-7-7--7-7-5-----7--7-7----7-7----7-7--5------|

C|--------------------------------------------------------------------|
G|--------------------------------------------------------------------|
D|--------------------------------------------------------------------|
A|----------5--2--2-0-------------------------------------------------|
E|---------------------------2--2-2-24h4-4-4-4-45h5-5-5-5-57h-7-7-----|
B|3--3-3-3-----------0---0----------------------------------------0-0-|

C|-----------------------------------------------------------------------|
G|-----------------------------------------------------------------------|
D|-----------------------------------------------------------------------|
A|-------5--5-5-22--2-2-------------5--5-5-------7--79---------5--5-522--|
E|----------------------------------------55--5-7------------------------|
B|3--3-3---------------0--2--3--3-3-------------------7\3--3-3-----------|

C|-------------------------------------------------------------------------|
G|-------------------------------------------------------------------------|
D|-------------------------------------------------------------------------|
A|-------------------------------------------------------------------------|
E|------5--5-55---57h-----------------------------------------------55-5--7|
B|0--0-0------------5--5-55-5-5-3--3-33--3-300--0--00-5-3--3-33--333-------|

C|----------------------------------------------------------|
G|----------------------------------------------------------|
D|----------------------------------------------------------|
A|------------5--5--22--2-22222--2--------------------------|
E|--------------------------------5--5-5555555--------------|
B|5555753--3----------------------------------5555-5-5555555|

7.23 (some notes here spaced out more than they should be to avoid confusion of fret 
number.) (With delay)
C|--------18-16p18h-----------16-18h/21--18p----23--21-23h20-21h18-20h16-18h|
G|-----------------16--18h--------------------------------------------------|
D|--------------------------------------------------------------------------|
A|--------------------------------------------------------------------------|
E|--------------------------------------------------------------------------|
B|7--\----------------------------------------------------------------------|

C|--------------------------------------------16-18h/21--18p----|
G|----16--18h-16p18h----21\18-16p--18h--------------------------|
D|-------------------------------------19h----------------------|
A|--------------------------------------------------------------|
E|--------------------------------------------------------------|
B|--------------------------------------------------------------|

C|23--21-23h20-21h18-20h16-18h----------16---------13--16--------16---------|
G|--------------------------------16-18h-----14------------14------14-13p-\9|
D|--------------------------------------------------------------------------|
A|--------------------------------------------------------------------------|
E|--------------------------------------------------------------------------|
B|--------------------------------------------------------------------------|

C|---13---13-11p-13h-----11-16-13-----11-13-14-13-----||
G|----------------------------------------------------||
D|----------------------------------------------------||
A|----------------------------------------------------||
E|----------------------------------------------------||
B|----------------------------------------------------||





Comments


Popular Karnivool tabs & chords
The Caudal Lure Bass Tabs
Cote Chords
C.O.T.E 1 Tabs
Illlumine Tabs
Lifelike Tabs
Scarabs Tabs
Set Fire To The Hive Tabs
Sewn And Silent 2 Tabs
Shutterspeed Tabs
Some More Of The Same Tabs


Song lyrics



↑ Back to top | Tablatures and chords are parodies/interpretations of the original songs. You may use it for private study, scholarship, research or language learning purposes only
© 2014 AZChords.com Contact us | Privacy policy | DMCA | Add/correct tabs | Request tabs | Top 50 tabs