>
 >
Lifelike

Lifelike Guitar Tabs

Karnivool - Lifelike chords, tabs, tablatures, lyrics

Guitar lessons | Add/correct | Request | Top 50 tabs Artists:  A B C D E F G H I J K L M N O P Q R S T U V W X Y Z 0-9

Lifelike Guitar Tabs – Karnivool

CD, Sheet music, Poster

Do you like Lifelike? Share with your friends now
Tabs
-----------------------------------------------------------
-----------------------------------------------------------

Tuning: B F# B G B E

intro, i'm not into effects much but this is delayed or something.

E |-----3-2--------|
B |--0------3------|
G |----------------|
B |----------------|
F#|----------------|
B |----------------|

play this x2
E |----------------------------------------------------|
B |----------------------------------------5555555-----|
G |----------------------------------------4444444-----|
B |----------------------------------------xxxxxxx-----|
F#|--0h1p0h1-00-0-0h1p0h1-00-0-0h1p0h1-00--5555555-----|
B |--0h1p0h1-00-0-0h1p0h1-00-0-0h1p0h1-00--------------|
             .. .         .. .         ..

play this x2
E |----------------------------------------------------|
B |-----------------------------------5555555----------|
G |-----------------------------------4444444----------|
B |-----------------------------------xxxxxxx----------|
F#|--1/5-000-0--1/5-000-0--1/5-000-0--5555555----------|
B |--1/5-000-0--1/5-000-0--1/5-000-0-------------------|
         ... .      ... .      ... .

play this x2
E |-------------------------------------------------------------|
B |----------------------------------------------------5555555--|
G |----------------------------------------------------4444444--|
B |----------------------------------------------------xxxxxxx--|
F#|--0h1p0h1--5*5*5*--0h1p0h1--5*5*5*--0h1p0h1-5*5*5*--5555555--|
B |--0h1p0h1--5*5*5*--0h1p0h1--5*5*5*--0h1p0h1-5*5*5*-----------|



Chorus x2
E |------------------0-----------------------0-------|
B |--------10----------7----------10---------7-------|
G |------9---11----------6------9----11------6-------|
B |---8~---------5~----------8~----------5~----------|
F#|---8~---------5~----------8~----------5~----------|
B |---8~---------5~----------8~----------5~----------|

1:12
E |-------------|
B |---55---55---|
G |---44---44---|
B |---xx---xx---|
F#|---55-0-55---|
B |------0------|
         .

play this x2
E |----------------------------------------------------|
B |-----------------------------------5555555----------|
G |-----------------------------------4444444----------|
B |-----------------------------------xxxxxxx----------|
F#|--1/5-000-0--1/5-000-0--1/5-000-0--5555555----------|
B |--1/5-000-0--1/5-000-0--1/5-000-0-------------------|
         ... .      ... .      ... .

E |----------------------------------------------------|
B |------------------------------------------5555555---|
G |------------------------------------------4444444---|x2
B |------------------------------------------xxxxxxx---|
F#|--0h1p0h1-0000-0h1p0h1-0000-0h1p0h1-0000--5555555---|
B |--0h1p0h1-0000-0h1p0h1-0000-0h1p0h1-0000------------|
             ....         ....         ....

repeat chorus x4

bit after chorus
E |-----------------------------------------------------|
B |-----------------------------------------------------|
G |-----------------------------------------------------|
B |-----------------------------------------------------|
F#|-----------------------------------------------------|
B |--0h1p0h1-0-0h1p0h1-0-0h1h2p0------------------------|

repeat intro riff

bridge       (in order for the first few bars)
E |-----------------------------------------------------|
B |-------12*--------5*---------------------------------|
G |---12*---------7*-------7/9--------------------------|
B |----------------------------10/12---6*--8*--12*------|
F#|-----------------------------------------------------|
B |-----------------------------------------------------|


E |-----------------------------------14-------14-----------------|
B |--------12*-------5*------------------10-12----10-12^-10\7/9---|
G |----12*--------7*------7/9-------------------------------------|
B |---------------------------10/12-------------------------------|
F#|---------------------------------------------------------------|
B |---------------------------------------------------------------|

E |-----------------------------------------------------|
B |-------12*--------5*---------------------------------|
G |---12*---------7*-------7/9--------------------------|
B |----------------------------10/12---6*--8*--12*------|
F#|-----------------------------------------------------|
B |-----------------------------------------------------|


E |-----------------------------------------------------|
B |-------12*--------5*---------------------------------|
G |---12*---------7*-------7/9--------------------------|
B |----------------------------10/12--------------------|
F#|-----------------------------------------------------|
B |-----------------------------------------------------|


E |------------------------------------------|
B |---------------------9999^9h10p9-7--------|
G |------------------------------------------|
B |------------------------------------------|
F#|--1010101010101010------------------------|
B |--1010101010101010------------------------|
     . . . . . . . . 



i'll add the rest when i have time. 


| .  palm mute
| /  slide up
| \  slide down
| h  hammer-on
| p  pull-off
| ~  vibrato
| *  harmonic
| x  Mute note
===========================================





Comments


Popular Karnivool tabs & chords
All I Know 3 Bass Tabs
Change Bass Tabs
Eidolon Bass Tabs
Simple Boy Bass Tabs
C.O.T.E 1 Tabs
New Day Tabs
Roquefort Tabs
Roquefort 1 Tabs
Success Intro Tabs
Cote Ukulele


Song lyrics



↑ Back to top | Tablatures and chords are parodies/interpretations of the original songs. You may use it for private study, scholarship, research or language learning purposes only
© 2014 AZChords.com Contact us | Privacy policy | DMCA | Add/correct tabs | Request tabs | Top 50 tabs