>
 >
Illlumine

Illlumine Guitar Tabs

Karnivool - Illlumine chords, tabs, tablatures, lyrics

Guitar lessons | Add/correct | Request | Top 50 tabs Artists:  A B C D E F G H I J K L M N O P Q R S T U V W X Y Z 0-9

Illlumine Guitar Tabs – Karnivool

CD, Sheet music, Poster

Do you like Illlumine? Share with your friends now
Tabs
------------------------------------------------------------
                   Illumine - Karnivool
------------------------------------------------------------

Tuning: B F# B G B E

Intro
play this note heaps
e |-------------|
B |-------------|
G |-------------|
B |---5---------|
F#|-------------|
B |-------------|
play this a few times
e |-------------------|
B |-------------------|
G |-------------------|
B |---3h5-6p5-3h5-----|
F#|-------------------|
B |-------------------|
0:42  guitar 2 plays this a few times
e |------------------------------|
B |-------8~\5-------------------|
G |-------7~\4-------------------|
B |--5-5-------------------------|
F#|------------------------------|
B |------------------------------|
0:51  both guitars
e |-----------|
B |-----------|
G |-----------|
B |---5-------|
F#|-----------|
B |-----------|

"don't listen..."
e |------------------------------------------|
B |------------------------------------------|
G |------------------------------------------|
B |---5555555555555555-5555555555555555------|
F#|--------------------1111111111111111------|
B |------------------------------------------|
"it breaks you..."
e |------------------------------------------|
B |------------------------------------------|
G |--------------------777~------------------|
B |--5555555555555555--555~------------------|
F#|--xxxxxxxxxxxxxxxx--xxx-------------------|
B |--3333333333333333--666~------------------|

1:12   x2
e |------------------------------------------|
B |------------------------------------------|
G |------------------------------------------|
B |------8-------8--------11-----------------|
F#|--------------------------------11--------|
B |--5-5---5-5-5---5--8-8----8-8-8----8------|

e |------------------------------------------|
B |------------------------------------------|
G |---------------------9--------------------|
B |------5-6-----6-------------5-6-----------|
F#|------------------------------------------|
B |--3-3-----3-3----6-6----6-6---------------|

play the above riff again with a few extra notes thrown in

"you seem afraid..."
e |-------------|
B |-------------|
G |-------------|play this note fast
B |---5---------|
F#|-------------|
B |-------------|

Chorus
guitar 1   play hella fast
e |-----------------------------------------|
B |----------8-------------------8----------|
G |---10p9p7---10p9p7-7h9-10p9p7---10p9p7---|
B |-----------------------------------------|
F#|-----------------------------------------|
B |-----------------------------------------|
guitar 2   (2nd time is a bit different)
e |-------0------0-0--------8~--------------|
B |-------6------6/8-----------------6/8----|
G |-------5------5/7-----------------5/7----|x2
B |-----------------------------------------|
F#|--6-6-----6-6-------6-3-------3-3--------|
B |--6-6-----6-6-------6-3-------3-3--------|

2nd verse
"so lead us on..."
e |--------------------------------------------------------------|
B |--------------------------------------------------------------|
G |--99999999-77777777-12-10-10-10-10-999999-555555--------------|
B |-------------------------------------------------10-10-10-10--|x2
F#|--------------------------------------------------------------|
B |--------------------------------------------------------------|

"how to let it go..."
e |---------------------------|
B |--------888----------------|
G |--------777----------------|x4
B |--555555555----------------|
F#|---------------------------|
B |---------------------------|
2:34
e |------------------------8~----|
B |------8----------8------------|
G |----5--------4h5--------------|
B |--6------6-6------------------|
F#|-------------------8-8--------|
B |------------------------------|
2:42
e |--------------------------|
B |--10----8----3----6-------|
G |--9-----7----2----5-------|
B |--------------------------|
F#|--------------------------|
B |--------------------------|

SOLO
e |---10-10p8-10-10p8-10-10-8~-10-10p8-10-10p8-10-10p8-10/12---|
B |------------------------------------------------------------|
G |------------------------------------------------------------|
B |------------------------------------------------------------|
F#|------------------------------------------------------------|
B |------------------------------------------------------------|

e |--------10------13-13-13-12----10---10--|
B |--10-------------------------8----8-----|
G |-----12----12---------------------------|
B |----------------------------------------|
F#|----------------------------------------|
B |----------------------------------------|


The rest is coming soon... 


| /  slide up
| \  slide down
| h  hammer-on
| p  pull-off
| ~  vibrato
| +  harmonic
| x  Mute note
====================================================





Comments


Popular Karnivool tabs & chords
All I Know 1 Bass Tabs
All I Know 3 Bass Tabs
The Caudal Lure Bass Tabs
C.O.T.E Tabs
Fear Of The Sky Tabs
Roquefort 1 Tabs
Sewn And Silent Tabs
Sleeping Satellite 2 Tabs
Themata 1 Tabs
Themata Intro Tabs


Song lyrics



↑ Back to top | Tablatures and chords are parodies/interpretations of the original songs. You may use it for private study, scholarship, research or language learning purposes only
© 2014 AZChords.com Contact us | Privacy policy | DMCA | Add/correct tabs | Request tabs | Top 50 tabs