» » »

Karma To Burn, Twenty Nine Tabs (ver.2)

Artists:  A B C D E F G H I J K L M N O P Q R S T U V W X Y Z # 

Twenty Nine Tabs (ver.2)

Karma To Burn Tabs
 Rating:
4/5 (4 votes)
Twenty Nine lessons Tabs too difficult? Try these video lessons and learn fast
                Tuning: (D,A,D,G,b,e) (Low to High)

p  pull off
h  hammer on
b  bend
/  slide up
\  slide down
PM  palm mute


NOTE: For Riff 1 I'm not sure how to make those scratching noises.  

Intro:
|----------------------|
|--16h17/--------------|
|----------------------|
|----------------------|
|----------------------|
|----------------------|


Riff 1
|-----|---------------------------------------------
|-----|---------------------------------------------
|--XX-|---------------------------------------------
|--XX-|-3-3p0-6-6p0--55\12/-3--3p0--8-8\12/-6\12/-3--
|--XX-|-3-3p0-6-6p0--55\12/-3--3p0--8-8\12/-6\12/-3--
|--XX-|-3-3p0-6-6p0--55\12/-3--3p0--8-8\12/-6\12/-3--

---------------------------------------|
---------------------------------------|
---------------------------------------|
--3-6p0-5\12/-3-3p0-88888888-66666h8-6-|
--3-6p0-5\12/-3-3p0-88888888-66666h8-6-|
--3-6p0-5\12/-3-3p0-88888888-66666h8-6-|

Riff 2
|--------------------------|-------|
|--------------------------|-------|
|--------------------------|-------|
|--------------------------|-11-22-|
|--------------------------|-11-22-|
|--3363-X386--3363--11--22-|-11-22-|
pm      .

Riff 3
|----------------------------------------|
|----------------------------------------|
|----------------------------------------|
|-331--3--1--1----01\3-3--331--3-1-0-6-3-|
|-331--3--1--1----01\3-3--331--3-1-0-6-3-|
|-331--3--1--1----01\3-3--331--3-1-0-6-3-|

Riff 4
|-------------------------------------------------------------------|
|-------------------------------------------------------------------|
|-------------------------------------------------------------------|
|-333--6666-6060--333---111-222\3-33--6666-6060-6888--668-6-86-8b-6-|
|-333--6666-6060--333---111-222\3-33--6666-6060-6888--668-6-86-8b-6-|
|-333--6666-6060--333---111-222\3-33--6666-6060-6888--668-6-86-8b-6-|

Riff 5
|-------------------------------------------|
|-------------------------------------------|
|-------------------------------------------|
|-6666-6666-6666-6666-1111-1111-2222-22-6/3-|
|-6666-6666-6666-6666-1111-1111-2222-22-6/3-|
|-6666-6666-6666-6666-1111-1111-2222-22-6/3-|

Riff 6 (almost the same as Riff 2)
|------------------------|
|------------------------|
|------------------------|
|------------------------|
|------------------------|
|-3363b--386--3363-11-22-|

Riff 7
|----------------------------------|
|----------------------------------|
|----------------------------------|
|-3-3-6-3--33-6-3--33--6-3--6-3----|
|-3-3-6-3--33-6-3--33--6-3--6-3----|
|-3-3-6-3--33-6-3--33--6-3--6-3-6b-|

Ending...
|-------------------------------|
|-------------------------------|
|-------------------------------|
|------33----33----33--------33-|
|------33----33----33--------33-|
|-3-6b-33-6b-33-6b-33-6b3-6b-3
plz rate this tab
            
Submit corrections

comments powered by Disqus
↑ Back to top | Karma To Burn Tabs for Twenty Nine. Lyrics for acoustic guitar and electric guitar. Tablatures and chords are parodies/interpretations of the original songs. You may use it for private study, scholarship, research or language learning purposes only