>
 >
Outside Is The Drama 1

Outside Is The Drama 1 Guitar Tabs

Karate - Outside Is The Drama 1 chords, tabs, tablatures, lyrics

Guitar lessons | Add/correct | Request | Top 50 tabs Artists:  A B C D E F G H I J K L M N O P Q R S T U V W X Y Z 0-9

Outside Is The Drama 1 Guitar Tabs – Karate

CD, Sheet music, Poster

Do you like Outside Is The Drama 1? Share with your friends now
TabsTabs v2
#################################################
Tuning: Standard
Chords: /
#################################################

Intro:
  Part 1       /w\      Part 2
 e-------------------  ------------------------|
 B--5-5-5-\-3-\-2-~--  --5-5-5-\-3-\-2h3p2p0---|
 G--0-0-0---0---0----  --0-0-0---0---0---------|
 D--x-x-x---x---2-~--  --x-x-x---x---2---------|
 A--7-7-7-\-5-\-0----  --7-7-7-\-5-\-0---------|
 E-------------------  ------------------------|

Verse A:
   hit x times/listen to record for rhythm

                     F#m
 e-------------------2---------------------|
 B-------------------2------------3--\-1---|
 G-------------------2----------0-0----0---|
 D-2-2-2-2-----------4--------4---4--\-2---|
 A-0-0-0-0-0-2-3-4---4--3-4-5----(5)---3---|
 E-----------------2-2---------------------|
   pm.....
                     F#m
 e-------------------2---------------------|
 B-------------------2---------------------|
 G-------------------2------------4----4---|
 D-2-2-2-2-----------4--------2---2----2---|
 A-0-0-0-0-0-2-3-4---4--------2---2----2---|
 E-----------------2-2--2-1-0-0---0----0---|
   pm.....

Verse B:

 e-------------------------------------------------------------------|
 B-------------------------------------------------------------------|
 G------4-------4-------4-------4-------4-------4-------4-------4----|
 D----4---4---4---4---4---4---4---4---4---4---4---4---4---4---4---4--|
 A--2-------2-------2-------2-------5-------5-------5-------5--------|
 E-------------------------------------------------------------------|

 e-----------------------------------------------------------------(0)-|
 B----------------------------------------------------------0-------0--|
 G------4-------4-------4-------4-------4-------4-------3-----3---3-3--|
 D----4---4---4---4---4---4---4---4---4---4---4---4---4---4-----4---4--|
 A--2-------2-------2-------2-------5-------5-----------------------4--|
 E--------------------------------------------------2---------------2--|

Back to Intro

Verse A

Verse B

Intro - Part 1 2x

Solo/Outro:
     v-approx. 14x-v
 e----------------------------------------------------------------|
 B-----14--14--14--14--12--12--10--10h12-10--10--10--10--12--14---|
 G----------------------------------------------------------------|
 D-2/14--14--14--14-\12--12--11--11--------11--11--11-/12-/14---/-|
 A----------------------------------------------------------------|
 E----------------------------------------------------------------|

 e-------------------------------------------------------------------18--|
 B----15--17--15--19--15--17--15--17--15--17--15--17------17------17-17--|
 G--------------------------------------------------15--15--15--15---15--|
 D-/16--16--16--16--16--16--16--16--16--16--16--16----16------16----(16)-|
 A-----------------------------------------------------------------------|
 E-----------------------------------------------------------------------|

                                     v listen to record
 e-------------------------------------------------|
 B-------------------------------------------------|
 G-------------------------------------------------|
 D--12-11-9-(approx. 22x)--end with--9-9-9-9-9-9-\-|
 A-------------------------------------------------|
 E-------------------------------------------------|

then go to this progression

 e-------------------------------------------------|
 B-------------------------------------------------|
 G-------------------------------------------------|
 D-7/9-9-9-9\7-7-7-7/11-11-11-11\7-7-7-- play 6x --|
 A-0-0-0-0-0-0-0-0-0-0--0--0--0--0-0-0-------------|
 E-------------------------------------------------|

slide up to the beggining of the solo with a variation

 e-------------------------------------------------------------------------------|
 B------10--10--12--12--14--14--14--14--12--12--10--10h12-10--10--10--10--12--14-|
 G-------------------------------------------------------------------------------|
 D--7/11--11-/12--12-/14--14--14--14-\12--12--11--11--------11--11--11-/12-/14---|
 A-------------------------------------------------------------------------------|
 E-------------------------------------------------------------------------------|

 e-------------------------------------------------------------------18--|
 B----15--17--15--19--15--17--15--17--15--17--15--17------17------17-17--|
 G--------------------------------------------------15--15--15--15---15--|
 D-/16--16--16--16--16--16--16--16--16--16--16--16----16------16----(16)-|
 A-----------------------------------------------------------------------|
 E-----------------------------------------------------------------------|

END

Tablature explanation:
######################
B       Full Bend
b       1/2  Bend
bb      1/4  Bend
~~~~~   Tremolo
^(#)    Bend to (#)
/       Slide up
\       Slide down
h       Hammer-on
p       Pull-off
(#)     Ghost note
%       Rest
######################





Comments


Popular Karate tabs & chords
Halo Of The Strange Bass Tabs
Fatal Strategies Tabs
First Release Tabs
If You Can Hold Your Breath Tabs
New Martini Tabs
New Martini 1 Tabs
Number Six Tabs
Pines Tabs
The State I'm In' Aka 'Goode Buy From Cobbs Creek Park Tabs
Up Nights Tabs


Song lyrics



↑ Back to top | Tablatures and chords are parodies/interpretations of the original songs. You may use it for private study, scholarship, research or language learning purposes only
© 2014 AZChords.com Contact us | Privacy policy | DMCA | Add/correct tabs | Request tabs | Top 50 tabs