» » »

Kansas, Hold On Bass tabs (ver.1)

Artists:  A B C D E F G H I J K L M N O P Q R S T U V W X Y Z # 

Hold On Bass tabs (ver.1)

Kansas Tabs
 Rating:
4/5 (4 votes)
Hold On lessons Tabs too difficult? Try these video lessons and learn fast
                ------------------------------------------------------------------------------
------------------------------------------------------------------------------


Tuning: Standard

Intro
G|-------------------------|-------------------|
D|-------------------------|-------------------|
A|-0-----2-----3---------2-|-5-----------3---2-|
E|-------------------3-----|-------------------|
>> 1 + + 2 + + 3 + + 4 + +   1 + + 2 + + 3 + +





Verse
G|-------------------------|-------------------------|
D|-------------------------|-------------------------|
A|-0-------0-2---------0---|-------------------------|
E|-------------3---------3-|-2-----------------00-00-|
>> 1 + + 2 + + 3 + + 4 + +   1 + + 2 + + 3 + + 4 + + 

G|-------------------------|-------------|
D|-----------------------2-|-0-----------|
A|-0-------0-2-3-------3---|-----------3-|
E|-------------------------|-------------|
>> 1 + + 2 + + 3 + + 4 + +   1 + + 2 + + 

G|-------------------------|-------------------------|
D|-------------0-----------|-------------------------|
A|-------------------------|-3-----------2-------2-3-|
E|-3-----------------------|-------------------------|
>> 1 + + 2 + + 3 + + 4 + +   1 + + 2 + + 3 + + 4 + + 

(Verse 1; Verse 2)
G|-------------7-----------|
D|------------7------------|
A|-5---------5-------2-----|
E|-------------------------|
>> 1 + + 2 + + 3 + + 4 + +

G|----------7--------------|
D|---------7-75------------|
A|-5-----------7-----2-----|
E|-------------------------|
>> 1 + + 2 + + 3 + + 4 + +





Chorus (Chorus 1 + Chorus 2: 2x; Chorus 3: 4x) 
G|-------------------------|-------------------------|
D|-2-----5-4-2-0-------0-2-|-------0-------0-2-0-----|
A|-------------------------|-3-----------3-------3-2-|
E|-------------------------|-------------------------|
>> 1 + + 2 + + 3 + + 4 + +   1 + + 2 + + 3 + + 4 + + 

(Chorus 1; Chorus 3)
G|-------------------------|
D|-2-----------------------|
A|-------------------------|
E|-------------------------|
>> 1 + + 2 + + 3 + + 4 + +

(Chorus 2)
G|-------------------------|
D|-2-----------0-----2-----|
A|-------3-----------------|
E|-------------------------|
>> 1 + + 2 + + 3 + + 4 + +





Solo
G|-------------------------|-------------------------|
D|-----------------------2-|-0-----------------------|
A|-0-------0-2-3-------3---|-------------------------|
E|-------------------------|-------------------00-00-|
>> 1 + + 2 + + 3 + + 4 + +   1 + + 2 + + 3 + + 4 + + 

G|-------------------------|-------------------------|
D|---------2-0-----------2-|-0-----------------------|
A|-0-----0-----3-------3---|-------------------------|
E|-------------------------|-------------------------|
>> 1 + + 2 + + 3 + + 4 + +   1 + + 2 + + 3 + + 4 + + 

G|-------------------------|-------------------------|
D|---------------------3-3-|-----------5-3-----5-3-20|
A|-3-----3-5-3--------3-3--|-3-----3-5---------------|
E|-------------1-----------|-------------------------|
>> 1 + + 2 + + 3 + + 4 + +   1 + + 2 + + 3 + + 4 + + 

G|-------------------------|-------------------------|
D|-------------------------|-------2-----------------|
A|-3-----3---33------------|-------------------------|
E|---------3---1-----1-3-1-|-0-----------------------|
>> 1 + + 2 + + 3 + + 4 + +   1 + + 2 + + 3 + + 4 + +
            
Submit corrections

comments powered by Disqus
↑ Back to top | Kansas Bass for Hold On. Lyrics for acoustic guitar and electric guitar. Tablatures and chords are parodies/interpretations of the original songs. You may use it for private study, scholarship, research or language learning purposes only