» » »

Dust In The Wind Beginners Tabs (ver.1)

Artists:  A B C D E F G H I J K L M N O P Q R S T U V W X Y Z # 

Dust In The Wind Beginners Tabs (ver.1)

Kansas
Rating:
0/5 (0 votes)

Hard to play? Try these video lessons and learn fast.
                This is an easier version of the song.

I made this version because it's really hard
for me to play it with all the other picking
in it.  This is more so for beginniers.

fingers is placed on the cords C and Am


 FINGERING= C
e. -------------------------------------
B. -1-----1--0-----0--3-----3--1-----1--
G. -----0--------0--------0--------0----
D. ---2--------2--------2--------2------
A. -3--------3--------3--------3--------
E. -------------------------------------


 FINGERING= Am
e. -------------------------------------
B. -1-----1--0-----0--3-----3--1-----1--
G. -----2--------2--------2--------2----
D. ---2--------2--------2--------2------
A. -0--------0--------0--------0--------
E. -------------------------------------

Thats pretty much it, it just repeats those
until the end of the song.
Please rate this tab.

*TiBoi*
            
Hard to play? Try these video lessons and learn fast. | Correct




comments powered by Disqus
↑ Back to top | Tablatures and chords are parodies/interpretations of the original songs. You may use it for private study, scholarship, research or language learning purposes only