>
 >
Dust In The Wind Rhythm

Dust In The Wind Rhythm Guitar Tabs

Kansas - Dust In The Wind Rhythm chords, tabs, tablatures, lyrics

Guitar lessons | Add/correct | Request | Top 50 tabs Artists:  A B C D E F G H I J K L M N O P Q R S T U V W X Y Z 0-9

Dust In The Wind Rhythm Guitar Tabs – Kansas

CD, Sheet music, Poster

Do you like Dust In The Wind Rhythm? Share with your friends now
Tabs
**I only tab for Guitar Tab Universe!**


Tuning: Standard (EADGBe)

Notes: This is the rhythm only (no solo).


[Fingering Sample]

e-|-------------------------|
B-|-m------m----m------m----| m = middle finger
G-|-----i-----i-----i-----i-| i = index finger
D-|----t-----t-----t-----t--| t = thumb
A-|-t-----t-----t-----t-----| 
E-|-------------------------|
    1  +  2  +  3  +  4  +   <-- Time (4/4) 



[Intro]
   
    C           Cmaj7         Cadd9       C             Asus2       Asus4         Am          Asus2
e-|-------------------------|-------------------------|-------------------------|-------------------------|
B-|-1------1----0------0----|-3------3----1------1----|-0------0----3------3----|-1------1----0------0----|
G-|-----0-----0-----0-----0-|-----0-----0-----0-----0-|-----2-----2-----2-----2-|-----2-----2-----2-----2-|
D-|----2-----2-----2-----2--|----2-----2-----2-----2--|----2-----2-----2-----2--|----2-----2-----2-----2--|
A-|-3-----3-----3-----3-----|-3-----3-----3-----3-----|-0-----0-----0-----0-----|-0-----0-----0-----0-----|
E-|-------------------------|-------------------------|-------------------------|-------------------------|
    1  +  2  +  3  +  4  +    1  +  2  +  3  +  4  +    1  +  2  +  3  +  4  +    1  +  2  +  3  +  4  +

    Cadd9       C             Cmaj7       Cadd9         Am          Asus2         Asus4       Am       G/B
e-|-------------------------|-------------------------|-------------------------|-------------------------|
B-|-3------3----1------1----|-0------0----3------3----|-1------1----0------0----|-3------3----1-----1--3--|
G-|-----0-----0-----0-----0-|-----0-----0-----0-----0-|-----2-----2-----2-----2-|-----2-----2-----2-------|
D-|----2-----2-----2-----2--|----2-----2-----2-----2--|----2-----2-----2-----2--|----2-----2-----2--------|
A-|-3-----3-----3-----3-----|-3-----3-----3-----3-----|-0-----0-----0-----0-----|-0-----0-----0-----0--2--|
E-|-------------------------|-------------------------|-------------------------|-------------------------|
    1  +  2  +  3  +  4  +    1  +  2  +  3  +  4  +    1  +  2  +  3  +  4  +    1  +  2  +  3  +  4  +
 

[Verse]

    C           G/B          Am                       G           Dm7          Am                   G/B
e-|-------------------------|-------------------------|-------------1------1----|-0-----------------------|
B-|-1------1----3------3----|-------------------------|-0------0--------1-------|--------1----1-----1--3--|
G-|-----0-----0-----0-----0-|-----2-----2-----2-----2-|-----0-----0----2-----2--|-----2-----2-----2-------|
D-|----2-----2-----0-----0--|----2-----2-----2-----2--|----0-----0--0-----0-----|----2-----2-----2--------|
A-|-3-----3-----2-----2-----|-0-----0-----0-----0-----|-------------------------|-0-----0-----0-----0--2--|
E-|-------------------------|-------------------------|-3-----3-----------------|-------------------------|
    1  +  2  +  3  +  4  +   1  +  2  +  3  +  4  +   1  +  2  +  3  +  4  +   1  +  2  +  3  +  4  +

    C           G/B           Am                        G           Dm7           Am                   
e-|-------------------------|-------------------------|-------------1------1----|-0-----------------------|
B-|-1------1----3------3----|-------------------------|-0------0--------1-------|--------1----1------1----|
G-|-----0-----0-----0-----0-|-----2-----2-----2-----2-|-----0-----0----2-----2--|-----2-----2-----2-------|
D-|----2-----2-----0-----0--|----2-----2-----2-----2--|----0-----0--0-----0-----|----2-----2-----2-----2--|
A-|-3-----3-----2-----2-----|-0-----0-----0-----0-----|-------------------------|-0-----0-----0-----0-----|
E-|-------------------------|-------------------------|-3-----3-----------------|-------------------------|
    1  +  2  +  3  +  4  +    1  +  2  +  3  +  4  +    1  +  2  +  3  +  4  +    1  +  2  +  3  +  4  +
 

[Chorus]

    D/F#        G             Am          Am/G          D/F#         G            Am                G/B               
e-|-------------------------|-------------------------|-------------------------|-------------------------|
B-|-3------3----0------0----|-1------1----1------1----|-3------3-----0-----0----|-0h1----0----0h1---3-----|
G-|-----2-----0-----0-------|-----2-----2-----2-----2-|-----2-----0-----0-------|-----2-----2-------------|
D-|----0-----0-----0--------|----2-----2-----2-----2--|----0-----0-----0--------|----2-----2--------------|
A-|----------------------2--|-0-----0-----------------|----------------------2--|-0-----0-----0-----2-----|
E-|-2-----2-----3-----3-----|-------------3-----3-----|-2-----2-----3-----3-----|-------------------------|
    1  +  2  +  3  +  4  +    1  +  2  +  3  +  4  +    1  +  2  +  3  +  4  +    1  +  2  +  3  +  4  +


[Verse]

    C           G/B           Am                        G           Dm7           Am                   G/B
e-|-------------------------|-------------------------|-------------1------1----|-0-----------------------|
B-|-1------1----3------3----|-------------------------|-0------0--------1-------|--------1----1-----1--3--|
G-|-----0-----0-----0-----0-|-----2-----2-----2-----2-|-----0-----0----2-----2--|-----2-----2-----2-------|
D-|----2-----2-----0-----0--|----2-----2-----2-----2--|----0-----0--0-----0-----|----2-----2-----2--------|
A-|-3-----3-----2-----2-----|-0-----0-----0-----0-----|-------------------------|-0-----0-----0-----0--2--|
E-|-------------------------|-------------------------|-3-----3-----------------|-------------------------|
    1  +  2  +  3  +  4  +    1  +  2  +  3  +  4  +    1  +  2  +  3  +  4  +    1  +  2  +  3  +  4  +

    C           G/B           Am                        G           Dm7           Am                   
e-|-------------------------|-------------------------|-------------1------1----|-0-----------------------|
B-|-1------1----3------3----|-------------------------|-0------0--------1-------|--------1----1------1----|
G-|-----0-----0-----0-----0-|-----2-----2-----2-----2-|-----0-----0----2-----2--|-----2-----2-----2-------|
D-|----2-----2-----0-----0--|----2-----2-----2-----2--|----0-----0--0-----0-----|----2-----2-----2-----2--|
A-|-3-----3-----2-----2-----|-0-----0-----0-----0-----|-------------------------|-0-----0-----0-----0-----|
E-|-------------------------|-------------------------|-3-----3-----------------|-------------------------|
    1  +  2  +  3  +  4  +    1  +  2  +  3  +  4  +    1  +  2  +  3  +  4  +    1  +  2  +  3  +  4  +


[Chorus]

    D/F#        G             Am          Am/G          D/F#        G            
e-|-------------------------|-------------------------|-------------------------|
B-|-3------3----0------0----|-1------1----1------1----|-3------3-----0-----0----|
G-|-----2-----0-----0-------|-----2-----2-----2-----2-|-----2-----0-----0-------|
D-|----0-----0-----0--------|----2-----2-----2-----2--|----0-----0-----0--------|
A-|----------------------2--|-0-----0-----------------|----------------------2--|
E-|-2-----2-----3-----3-----|-------------3-----3-----|-2-----2-----3-----3-----|
    1  +  2  +  3  +  4  +    1  +  2  +  3  +  4  +    1  +  2  +  3  +  4  +   



[Post Chorus]

    Amadd9                    G/A                       F(#11)/A                  F6(#11)/A 
e-|-------------------------|-------------------------|-------------------------|-------------------------|
B-|--------0----0------0----|-0------0----0------0----|--------0----0------0----|-3-----3------3-----3----|
G-|-----5-----5-----5-------|-----7-----7-----7-----7-|-----5-----5-----5-----5-|-----5-----5-----5-----5-|
D-|----7-----7-----7-----7p5|----5-----5-----5-----5--|----3-----3-----3-----3--|----3-----3-----3-----3--|
A-|-0-----0-----0-----0-----|-0-----0-----0-----0-----|-0-----0-----0-----0-----|-0-----0-----0-----0-----|
E-|-------------------------|-------------------------|-------------------------|-------------------------|
    1  +  2  +  3  +  4  +    1  +  2  +  3  +  4  +    1  +  2  +  3  +  4  +    1  +  2  +  3  +  4  +



[Solo]
                                                                                          
                                                                                                         
    Amadd9                    G/A                       F(#11)/A                  F6(#11)/A               |
e-|-------------------------|-------------------------|-------------------------|-------------------------|
B-|-0------0----0------0----|-0------0----0------0----|-0------0----0------0----|-3-----3------3-----3----|
G-|-----5-----5-----5-------|-----7-----7-----7-----7-|-----5-----5-----5-----5-|-----5-----5-----5-----5-|
D-|----7-----7-----7-----7p5|----5-----5-----5-----5--|----3-----3-----3-----3--|----3-----3-----3-----3--|
A-|-0-----0-----0-----0-----|-0-----0-----0-----0-----|-0-----0-----0-----0-----|-0-----0-----0-----0-----|
E-|-------------------------|-------------------------|-------------------------|-------------------------|
    1  +  2  +  3  +  4  +    1  +  2  +  3  +  4  +    1  +  2  +  3  +  4  +    1  +  2  +  3  +  4  +
                                                                                                         
    Amadd9                    G/A                       F(#11)/A                  F6(#11)/A               |
e-|-------------------------|-------------------------|-------------------------|-------------------------|
B-|-0------0----0------0----|-0------0----0------0----|-0------0----0------0----|-3-----3------3-----3----|
G-|-----5-----5-----5-------|-----7-----7-----7-----7-|-----5-----5-----5-----5-|-----5-----5-----5-----5-|
D-|----7-----7-----7-----7p5|----5-----5-----5-----5--|----3-----3-----3-----3--|----3-----3-----3-----3--|
A-|-0-----0-----0-----0-----|-0-----0-----0-----0-----|-0-----0-----0-----0-----|-0-----0-----0-----0-----|
E-|-------------------------|-------------------------|-------------------------|-------------------------|
    1  +  2  +  3  +  4  +    1  +  2  +  3  +  4  +    1  +  2  +  3  +  4  +    1  +  2  +  3  +  4  +

    C           Cmaj7         Cadd9       C             Asus2       Asus4         Am          Asus2
e-|-------------------------|-------------------------|-------------------------|-------------------------|
B-|-1------1----0------0----|-3------3----1------1----|-0------0----3------3----|-1------1----0------0----|
G-|-----0-----0-----0-----0-|-----0-----0-----0-----0-|-----2-----2-----2-----2-|-----2-----2-----2-----2-|
D-|----2-----2-----2-----2--|----2-----2-----2-----2--|----2-----2-----2-----2--|----2-----2-----2-----2--|
A-|-3-----3-----3-----3-----|-3-----3-----3-----3-----|-0-----0-----0-----0-----|-0-----0-----0-----0-----|
E-|-------------------------|-------------------------|-------------------------|-------------------------|
    1  +  2  +  3  +  4  +    1  +  2  +  3  +  4  +    1  +  2  +  3  +  4  +    1  +  2  +  3  +  4  +

    Cadd9       C             Cmaj7       Cadd9         Am          Asus2         Asus4       Am       G/B
e-|-------------------------|-------------------------|-------------------------|-------------------------|
B-|-3------3----1------1----|-0------0----3------3----|-1------1----0------0----|-3------3----1-----1--3--|
G-|-----0-----0-----0-----0-|-----0-----0-----0-----0-|-----2-----2-----2-----2-|-----2-----2-----2-------|
D-|----2-----2-----2-----2--|----2-----2-----2-----2--|----2-----2-----2-----2--|----2-----2-----2--------|
A-|-3-----3-----3-----3-----|-3-----3-----3-----3-----|-0-----0-----0-----0-----|-0-----0-----0-----0--2--|
E-|-------------------------|-------------------------|-------------------------|-------------------------|
    1  +  2  +  3  +  4  +    1  +  2  +  3  +  4  +    1  +  2  +  3  +  4  +    1  +  2  +  3  +  4  + 



[Verse]

    C           G/B           Am                        G           Dm7           Am                   G/B
e-|-------------------------|-------------------------|-------------1------1----|-0-----------------------|
B-|-1------1----3------3----|-------------------------|-0------0--------1-------|--------1----1-----1--3--|
G-|-----0-----0-----0-----0-|-----2-----2-----2-----2-|-----0-----0----2-----2--|-----2-----2-----2-------|
D-|----2-----2-----0-----0--|----2-----2-----2-----2--|----0-----0--0-----0-----|----2-----2-----2--------|
A-|-3-----3-----2-----2-----|-0-----0-----0-----0-----|-------------------------|-0-----0-----0-----0--2--|
E-|-------------------------|-------------------------|-3-----3-----------------|-------------------------|
    1  +  2  +  3  +  4  +    1  +  2  +  3  +  4  +    1  +  2  +  3  +  4  +    1  +  2  +  3  +  4  +

    C           G/B           Am                        G           Dm7           Am                   
e-|-------------------------|-------------------------|-------------1------1----|-0-----------------------|
B-|-1------1----3------3----|-------------------------|-0------0--------1-------|--------1----1------1----|
G-|-----0-----0-----0-----0-|-----2-----2-----2-----2-|-----0-----0----2-----2--|-----2-----2-----2-------|
D-|----2-----2-----0-----0--|----2-----2-----2-----2--|----0-----0--0-----0-----|----2-----2-----2-----2--|
A-|-3-----3-----2-----2-----|-0-----0-----0-----0-----|-------------------------|-0-----0-----0-----0-----|
E-|-------------------------|-------------------------|-3-----3-----------------|-------------------------|
    1  +  2  +  3  +  4  +    1  +  2  +  3  +  4  +    1  +  2  +  3  +  4  +    1  +  2  +  3  +  4  +   



[Chorus]

    D/F#        G             Am          Am/G          D/F#        G             Am          Am/G        
e-|-------------------------|-------------------------|-------------------------|-------------------------|
B-|-3------3----0------0----|-1------1----1------1----|-3------3-----0-----0----|-1------1----1------1----|
G-|-----2-----0-----0-------|-----2-----2-----2-----2-|-----2-----0-----0-------|-----2-----2-----2-----2-|
D-|----0-----0-----0--------|----2-----2-----2-----2--|----0-----0-----0--------|----2-----2-----2-----2--|
A-|----------------------2--|-0-----0-----------------|----------------------2--|-0-----0-----------------|
E-|-2-----2-----3-----3-----|-------------3-----3-----|-2-----2-----3-----3-----|-------------3-----3-----|
    1  +  2  +  3  +  4  +    1  +  2  +  3  +  4  +    1  +  2  +  3  +  4  +    1  +  2  +  3  +  4  +    

    D/F#        G             Am          Am/G          D/F#        G             Am          Asus2        
e-|-------------------------|-------------------------|-------------------------|-----0-----0-----0-----0-|
B-|-3------3----0------0----|-1------1----1------1----|-3------3-----0-----0----|-1------1----1------1----|
G-|-----2-----0-----0-------|-----2-----2-----2-----2-|-----2-----0-----0-------|-------------------------|
D-|----0-----0-----0--------|----2-----2-----2-----2--|----0-----0-----0--------|----2-----2-----2-----2--|
A-|----------------------2--|-0-----0-----------------|----------------------2--|-0-----0-----0-----0-----|
E-|-2-----2-----3-----3-----|-------------3-----3-----|-2-----2-----3-----3-----|-------------------------|
    1  +  2  +  3  +  4  +    1  +  2  +  3  +  4  +    1  +  2  +  3  +  4  +    1  +  2  +  3  +  4  +   

    Asus4b13    Am            Asus2       Asus4b13
e-|-----1-----1-----0-----0-|-----0-----------1-----1-|
B-|-3------3----1------1----|-0------0--3-3------3----|
G-|-------------------------|-------------------------|
D-|----2-----2-----2-----2--|----2-----2-----2-----2--|
A-|-0-----0-----0-----0-----|-0-----0-----0-----0-----|
E-|-------------------------|-------------------------|
    1  +  2  +  3  +  4  +    1  +  2  +  3  +  4  +   


[Outro]
(Play 3 times and fade)

      Am          Asus2         Asus4b13    Am            Asus2       Asus4b13   
e-||------0-----0-----0-----0-|-----1-----1-----0-----0-|-----0-----------1-----1--||
B-||--1------1----1------1----|-3------3----1------1----|-0------0--3-3------3-----||
G-||.-------------------------|-------------------------|-------------------------.||
D-||.----2-----2-----2-----2--|----2-----2-----2-----2--|----2-----2-----2-----2--.||
A-||--0-----0-----0-----0-----|-0-----0-----0-----0-----|-0-----0-----0-----0------||
E-||--------------------------|-------------------------|--------------------------||
      1  +  2  +  3  +  4  +    1  +  2  +  3  +  4  +    1  +  2  +  3  +  4  +





Comments


Popular Kansas tabs & chords
The Wall 1 Bass Tabs
Carry On My Wayward Son 1 Chords
Carry On My Wayward Son 2 Chords
Carry On Wayward Son Chords
Cheyenne Anthem Chords
Dust In The Wind (Intro) Chords
Icarus Chords
Carry On My Wayward Son 5 Tabs
Lonely Street Tabs
What's On My Mind Tabs


Song lyrics



↑ Back to top | Tablatures and chords are parodies/interpretations of the original songs. You may use it for private study, scholarship, research or language learning purposes only
© 2014 AZChords.com Contact us | Privacy policy | DMCA | Add/correct tabs | Request tabs | Top 50 tabs