>
 >
Fearless

Fearless Guitar Tabs

Kane - Fearless chords, tabs, tablatures, lyrics

Guitar lessons | Add/correct | Request | Top 50 tabs Artists:  A B C D E F G H I J K L M N O P Q R S T U V W X Y Z 0-9

Fearless Guitar Tabs – Kane

CD, Sheet music, Poster

Do you like Fearless? Share with your friends now
TabsTabs v2
Hi there,

here the tab of this great song of kane, Fearless!! wonderfull song!!
I found it by meself! If you can find any changes, please contact me! 
Have Fun with it!!

Please tune your guitar a half step down

Intro sounds like this:

Eb |----------------------------------------------------------------------|
Bb |----------------------------------------------------------------------|
Gb |----------------------------------------------------------------------|
Db |----------4----4--6p--4-------4--6----6-----4/6p-4---------6---4------|
Ab |----4--6---6-------------4--6-------4-----4-----------6---------------|
Eb |---------------------------------------------------------4----2----2--|

Eb |---------------------------------------------------------------|
Bb |---------------------------------------------------------------|
Gb |--------------------------------4---6----3/--4---------4--6----|
Db |----------4-----4--6p--4/6p------------------------------------|
Ab |----4--6----6--------------------------------------------------|
Eb |---------------------------------------------------------------|

Eb |----------------------------------------------------|
Bb |----------------------------------------------------|
Gb |----------------------------------------------------|
Db |----------------------------------------------------|
Ab |------4p6---4---4---4p6---4/2-----------------------|
Eb |-------------------------------------0--------------|


Then de main chords, I dont now the chord names but the positions are the most important!


         It's bin a while,              I thought I heard you say

Eb |-------------------------4--4--4--5-----4--2-------------|
Bb |-------------------------4--5--4--5-----4--2-------------|
Gb |--1----------------------6--6--6--6-----4--3-------------|
Db |--2----------------------6--6--6--6-----6--4-------------|
Ab |--2----------------------4--4--4--4-----6--4-------------|
Eb |-------------------------x--x--x--x-----4--2-------------|
     (let it ring)                    (let it ring)

     We go a long way back,              And now it's gone astray.

Eb |-------------------------4--4--4--5-----4--2-------------|
Bb |-------------------------4--5--4--5-----4--2-------------|
Gb |--1----------------------6--6--6--6-----4--3-------------|
Db |--2----------------------6--6--6--6-----6--4-------------|
Ab |--2----------------------4--4--4--4-----6--4-------------|
Eb |-------------------------x--x--x--x-----4--2-------------|
     (let it ring)                    (let it ring)


Pre-chorus:

    So you left along the way, on the brightest day and I'll say you're

Eb |-------------------------4--4--4--5--------------------|
Bb |-------------------------4--5--4--5--------------------|
Gb |--1----------------------6--6--6--6--------------------|
Db |--2----------------------6--6--6--6--------------------|
Ab |--2----------------------4--4--4--4--------------------|
Eb |-------------------------x--x--x--x--------------------|
     (let it ring)                    (let it ring)


Chorus:

   Fearless, weighed down to the bone, Got yourself together, on your way -
                                                              back home

Eb |-------4--4--4--5----------4-----------------2-----------------|
Bb |-------4--5--4--5----------4-----------------2-----------------|
Gb |--1----6--6--6--6----------4-----------------3--------------1--|
Db |--2----6--6--6--6----------6-----------------4--------------2--|
Ab |--2----4--4--4--4----------6-----------------4--------------2--|
Eb |-------x--x--x--x----------4-----------------2-----------------|

When your at the part "way back home", you play the chorus once again from the begin.

after the chorus you play the intro part 1 and 2, just 2 times and then play the pre-, and chorus...


Then the solo, very difficult to hea what he plays because of the use of many effects.

Solo:

Eb |------------------------------------------------------------------------|
Bb |---7--9--7--9--7-------------------------------------11----11 12--------|
Gb |------------------9--8--9--8---------------------11-----11-------11--11-|
Db |------------------------------11--13-----11--13-------------------------|
Ab |-------------------------------------11---------------------------------|
Eb |------------------------------------------------------------------------|


Eb |------------------------------------------------------------------------|
Bb |---7--9--7--9--7-------------------------------------11----11 12--------|
Gb |------------------9--8--9--8---------------------11-----11-------11--11-|
Db |------------------------------11--13-----11--13-------------------------|
Ab |-------------------------------------11---------------------------------|
Eb |------------------------------------------------------------------------|


Eb |----------------------------------------------------14------14-----------|
Bb |--------12-----14p/16--14--------12----14p16--14p16---14p16----14p16--14-|
Gb |-11--13----13-------------11--13----13-----------------------------------|
Db |-------------------------------------------------------------------------|
Ab |-------------------------------------------------------------------------|
Eb |-------------------------------------------------------------------------|

>>> means that you have to hold it intil it ends

                                                4x faster
Eb |--------------------14-------14-------14-|--------14--|----------------|
Bb |--------12----14p16----14p16----14p16----|--14p16-----|---14p16p17--14-|
Gb |-11--13----13----------------------------|------------|----------------|
Db |-----------------------------------------|------------|----------------|
Ab |-----------------------------------------|------------|----------------|
Eb |-----------------------------------------|------------|----------------|


after the solo you play the chorus a few times again!!

listen realy carefully to hear what the guitarist play!





Comments


Popular Kane tabs & chords
Rain Down On Me Bass Tabs
With Or Without You 1 Bass Tabs
Rain Down On Me 1 Chords
Shot Of A Gun Chords
Shot Of A Gun 1 Chords
I Will Keep My Head Down Tabs
In Over My Head Ukulele
Love Over Healing Ukulele
Over My Head Ukulele
Something To Say Ukulele


Song lyrics



↑ Back to top | Tablatures and chords are parodies/interpretations of the original songs. You may use it for private study, scholarship, research or language learning purposes only
© 2014 AZChords.com Contact us | Privacy policy | DMCA | Add/correct tabs | Request tabs | Top 50 tabs