>
 >
Girlfriend 2

Girlfriend 2 Guitar Tabs

Kamikaze - Girlfriend 2 chords, tabs, tablatures, lyrics

Guitar lessons | Add/correct | Request | Top 50 tabs Artists:  A B C D E F G H I J K L M N O P Q R S T U V W X Y Z 0-9

Girlfriend 2 Guitar Tabs – Kamikaze

CD, Sheet music, Poster

Do you like Girlfriend 2? Share with your friends now
Tabs
engage commentz:(09192465288)

intro:
--------------4-4------------------------------------------------------
-3-3------3-3-----3-3-1-1-0-0-1-1-3-----4-4--------------------4-------
-3-3--1-1-----------------------------------4-4-1-1-0-0-1-1-3--3-------
-1-1--------------------------------3-3------------------------1-------

verses:parts of this played palmute
-----------|-----------|---------------------------
-------4-2-|-4/6/8/9-9-|------------4-4-4-2-2-2----
---8-8-5-3-|-3/5/7/8-8-|8-8-8-8-8-8-5-5-5-3-3-3----
---8-8-5-3-|-1/3/5/6-6-|8-8-8-8-8-8-5-5-5-3-3-3----
---6-6-3-1-|-----------|6-----6-----3-----1--------
-----6-----|-----------|------6--------------------
pm . . . .              .     .     .     .   

bridge
-4-------------
-3-------------
-1---3-5-3-----
---6-3-5-3-----
---6-1-3-------
---4-----------

adlib:
--------------------------------------------|------------------------------
--------------------------------------------|----4-4-4-4-4-----4-4-4-4-4---
-----3---3---3------3---3---3-----3---3---3-|----3-3-3-3-3-----3-3-3-3-3---
-1-1---1---1--------------------------------|-1-1--------------------------
----------------3-3---3---3---1-1---1---1---|---------------3-3------------
--------------------------------------------|------------------------------

---------------|-----------------------------------------------------
-----4-4-4-4-4-|-----3-3-3-3-3-------3-3-3-3-3-3-----3-3-3-3-3--4-4--
-----3-3-3-3-3-|------------------------------------------------3-3--
---------------|-1-1--------------------------------------------1-1--
-1-1-----------|-----------------3-3-------------1-1-----------------
---------------|-----------------------------------------------------

i learn to be.... part
---------------
-4-------------
-3---5-3-------
-1-6-5-3-------
---6-3-1-------
---4-----------

outro:dont ever let me go...part do intro; 
      then it ends wit tiz one 
----------------
----------------
-----3-4---3----
-1-1-----1------
----------------
----------------

                                     {end}





Comments


Popular Kamikaze tabs & chords
Dejame Ser Tabs
Ert Tabs
Girlfriend Tabs
Lucky Tabs
Mmm Sarap Tabs
Rooky Jr Tabs
Turon Tabs
Ung Tagalog Tabs


Song lyrics



↑ Back to top | Tablatures and chords are parodies/interpretations of the original songs. You may use it for private study, scholarship, research or language learning purposes only
© 2014 AZChords.com Contact us | Privacy policy | DMCA | Add/correct tabs | Request tabs | Top 50 tabs