» » »

Kamelot, When The Lights Are Down Tabs (ver.1)

Artists:  A B C D E F G H I J K L M N O P Q R S T U V W X Y Z # 

When The Lights Are Down Tabs (ver.1)

Kamelot Tabs
 Rating:
4/5 (4 votes)
When The Lights Are Down lessons Tabs too difficult? Try these video lessons and learn fast
1
                When The Lights Are Down – Kamelot  Key: F#m in Eb tuning so Fm

INTRO:

Chords (guitar half step down):

Rythm guitar
-----------------------------------------------------------|
-----------------------------------------------------------|
-----------------------------------------------------------|
-----------------------------------------------------------|
-----------------------------------------------------------|
--2-----x---3--2--0--2----x----3--2--0--2---3--0-----------|
     2x with phaser

Phaser off:
--------------------------------------------------------------------|
--------------------------------------------------------------------|
--------------------------------------------------------------------|
--------------------------------------------------------------------|
--------------------------------------------------------------------|
--22222222222222222222222222222222-00000000000000000000000000000000-|

--------------------------------------------------------------------|
--------------------------------------------------------------------|
--------------------------------------------------------------------|
--------------------------------------------------------------------|
--55555555555555555555555555555555-77777777777777777777777777777777-|
--------------------------------------------------------------------|  2x

Solo guitar (half step down as well)[0:21]
------------------------------------------------------------------------|
-7-9-10-12-9—-10p9-7---10-9-7-------------------------------------------|
------------------------------9-7-6-9-7-6-------------------------------|
------------------------------------------9-7-6-9-7-6-------------------|
------------------------------------------------------9-7-5-------------|
------------------------------------------------------------9-7-5-7-5-4-|

-----------------------------------------|
-----------------------------------------|
-----------------------------------------|
-----------------------------------------|
---4----4*---4--4----4-5-4-2-4-----------|
---2--x----x-2--2--2---------2-----------|

VERSE 1

-----------------------------------------------------------------|
-----------------------------------------------------------------|
-----------------------------------------------------------------|
-----------------------------------------44-44-44-44------7----9-|
-----------------------------------5-4-2-44-44-44-44--4-2-5----7-|
--3-0-2-2-----3-0-2-2-x-3-0-2-2----------22-22-22-22--2-0--------|
  riff 1^     riff 2^

Rules without exceptions last eternally

Every move you make creates your destiny

            (riff 1) (riff 1)
I’ve come to soak my sorrow
   (riff 1)     (riff 2)
In halo black… as black as the seal on my soul

CHORUS 1:

--------------------------------------------------------------------|
--------------------------------------------------------------------|
--------------------------------------------------------------------|
--------------------------------------------------------------------|
--------------------------------------------------------------------|
--22222222222222222222222222222222-00000000000000000000000000000000-|

--------------------------------------------------------------------|
--------------------------------------------------------------------|
--------------------------------------------------------------------|
--------------------------------------------------------------------|
--55555555555555555555555555555555-55555555555555555555555577777777-|
--------------------------------------------------------------------|

--------------------------------------------------------------------|
--------------------------------------------------------------------|
--------------------------------------------------------------------|
--------------------------------------------------------------------|
--------------------------------------------------------------------|
--22222222222222222222222222222222-00000000000000000000000000000000-|

--------------------------------------------------------------------|
--------------------------------------------------------------------|
--------------------------------------------------------------------|
--------------------------------------------------------------------|
--55555555555555555555555555555555-77777777777777777777777777777777-|
--------------------------------------------------------------------|

-----------------------------------------|
-----------------------------------------|
-----------------------------------------|
-----------------------------------------|
---4----4*---4--4----4-5-4-2-4-----------|
---2--x----x-2--2--2---------2-----------|

VERSE 2

----------------------------------------------------|
----------------------------------------------------|
----------------------------------------------------|
----------------------------------------------------|
----------------------------------------------------|
--3-0-2-2-----3-0-2-2-x-3-0-2-2-x-3-2-0-------------|
  Riff 1^     Riff 2^

Rules without exceptions last eternally

(Riff 1)                        (riff 2)
every move you make creates your destiny
                                                                        (riff 1)
           (riff 2)                            (riff 3)
What can protect me from the past and all the things that I have done?

She told me, and then she was gone

-------------------------------------------------|
-------------------------------------------------|
-------------------------------------------------|
-------------------------------------------------|
-------------------------------------------------|
3-0-2-2-x-3-0-2-2-x-3-2-3---3-0-2-2-x-3-0-2-2-x--|
Riff 3^

---------------------------------------------|
---------------------------------------------|
---------------------------------------------|
---------------------------------------7--9--|
5-4-2-44-44-44-44-4444-44-44-44-44-4-2-5--7--|
------22-22-22-22-2222-22-22-22-22-2-0-------|
Riff 3 (continued)^


CHORUS 2:

Same as chorus 1, but the last time:

--------------------------------------------------------------------|
--------------------------------------------------------------------|
--------------------------------------------------------------------|
--------------------------------------------------------------------|
--55555555555555555555555555555555-55555555555555557777777799999999-|
--------------------------------------------------------------------|

Bridge (Not too accurate but it sounds similair...
temporary key change?:

----------------------------------------|
----------------------------------------|
-----------------9-8-4-6-4-3-4----------|
--------7----9--------------------------|
---9--7---7-----------------------------|
----------------------------------------|
pm.............

----------------------------------------|
----------------------------------------|
-----------------9-8-4-6-4-643----------|
--------7----9----------------643-------|
---9--7---7-----------------------------|
----------------------------------------|
pm.............                          (2x)

----------------------------------------|
----------------------------------------|
-------------------11-10-6-8-6-5-6------|
---------7---9--------------------------|
---9--7---7-----------------------------|
----------------------------------------|
pm.............

------------------------------------------|
------------------------------------------|
-------------------12-11--------14-----16-|
--------7----9-----------12---14-----16---|
---9--7---7-----------------12-----14-----|
------------------------------------------|
pm............             .....  .....

Rythm during SOLO (almost all pm):

-------------------------------------------------------|
-------------------------------------------------------|
-------------------------------------------------------|
-----------------------------------------------------5-|
-----------------------------------------------------5-|
-22222--2--2--22222—2222333322222--2--2--22222---22223-|

-------------------------------------------------------|
-------------------------------------------------------|
-------------------------------------------------------|
-------------------------------------------4----5------|
------------------------------------------4-4--5-5-----|
-22222--2--2--22222—2222333322222--2--2--2----3--------|  (2x)

CHORUS 3 = CHORUS 2

OUTRO

-----------------------------------------|
-----------------------------------------|
-----------------9-8-4-6-4-643-----------|
--------7----9----------------643-4------|
---9--7---7-----------------------4------|
----------------------------------2------|
pm.............

Have fun playing this incredible song. The live version on One Cold Winter's Night is a
different, but it isn't hard to figure out if you know the studio version. I hope my
for the verses isn't too confusing, but it was a bit difficult to tab, because you 
have to listen to the lyrics to get the timing right. Anyway, enjoy, and don't forget to
Kamelot live in their Ghost Opera 2007 tour!

BewilderedSon/Jordi
            
Submit corrections

comments powered by Disqus
↑ Back to top | Kamelot Tabs for When The Lights Are Down. Lyrics for acoustic guitar and electric guitar. 1 Tablatures and chords are parodies/interpretations of the original songs. You may use it for private study, scholarship, research or language learning purposes only