>
 >
Rule The World

Rule The World Guitar Tabs

Kamelot - Rule The World chords, tabs, tablatures, lyrics

Guitar lessons | Add/correct | Request | Top 50 tabs Artists:  A B C D E F G H I J K L M N O P Q R S T U V W X Y Z 0-9

Rule The World Guitar Tabs – Kamelot

CD, Sheet music, Poster

Do you like Rule The World? Share with your friends now
Tabs
I didn't tab this, the user 'Spellbreaker' did, I just exported it from GuitarPro.

Epic metal, enjoy.

Rule the World                                  


                                                                         Kamelot
Guitar I



      the pinch harmonics may not be correct           
                                                PM PM  
      H.                                     E  S  S   
D#||--------------------------------------------------|
A#||--------------------------------------------------|
F#||--------------------------------------------------|
C#||--------------------------------------------0--0--|
G#||--------------------------------------------------|
C#||--------------------------------------------------|


        PM PM       PM PM       PM PM       PM PM  
   S  S S  S   S  S S  S   S  S S  S   S  S S  S   
--------------------------------------------------|
--------------------------------------------------|
--------------------------------------------------|
--12p-0-0--0--13p-0-0--0--15p-0-0--0--13p-0-0--0--|
--------------------------------------------------|
--------------------------------------------------|


        PM PM       PM PM      PM      PM PM  
   S  S S  S   S  S S  S  S  S S  E.   S  S   
---------------------------------------------|
---------------------------------------------|
---------------------------------------------|
--12p-0-0--0--10p-0-0--0--7p-0-0--5~---0--0--|
---------------------------------------------|
---------------------------------------------|


        PM PM       PM PM       PM PM       PM PM  
   S  S S  S   S  S S  S   S  S S  S   S  S S  S   
--------------------------------------------------|
--------------------------------------------------|
--------------------------------------------------|
--12p-0-0--0--13p-0-0--0--15p-0-0--0--13p-0-0--0--|
--------------------------------------------------|
--------------------------------------------------|


        PM PM       PM               PM  
   S  S S  S   S  S S   E.  E   E.   S   
----------------------------------------|
----------------------------------------|
----------------------------------------|
--12p-0-0--0--13p-0-0--12---0--12~---0--|
----------------------------------------|
----------------------------------------|


        PM PM       PM PM       PM PM       PM PM  
   S  S S  S   S  S S  S   S  S S  S   S  S S  S   
--------------------------------------------------|
--------------------------------------------------|
--------------------------------------------------|
--12p-0-0--0--13p-0-0--0--15p-0-0--0--13p-0-0--0--|
--------------------------------------------------|
--------------------------------------------------|


        PM PM       PM PM      PM      PM PM  
   S  S S  S   S  S S  S  S  S S  E.   S  S   
---------------------------------------------|
---------------------------------------------|
---------------------------------------------|
--12p-0-0--0--10p-0-0--0--7p-0-0--5~---0--0--|
---------------------------------------------|
---------------------------------------------|


        PM PM       PM PM       PM PM       PM      
   S  S S  S   S  S S  S   S  S S  S   S  S S   S   
---------------------------------------------------|
---------------------------------------------------|
---------------------------------------------------|
--12p-0-0--0--13p-0-0--0--15p-0-0--0--13p-0-0--12~-|
---------------------------------------------------|
---------------------------------------------------|


          PH        PH               PM PM       PM PM       PM PM       PM PM  
  E  E    Q.        Q.          S  S S  S   S  S S  S   S  S S  S   S  S S  S   
----------------------------|--------------------------------------------------|
----------------------------|--------------------------------------------------|
----------------------------|--------------------------------------------------|
--L--0--<>4~----------------|--------------------------------------------------|
----------------------------|--------------------------------------------------|
------------------<>7~------|--12p-0-0--0--13p-0-0--0--15p-0-0--0--13p-0-0--0--|


        PM PM       PM PM      PM      PM PM  
   S  S S  S   S  S S  S  S  S S  E.   S  S   
---------------------------------------------|
---------------------------------------------|
---------------------------------------------|
---------------------------------------------|
---------------------------------------------|
--12p-0-0--0--10p-0-0--0--7p-0-0--5~---0--0--|


        PM PM       PM PM       PM PM       PM PM  
   S  S S  S   S  S S  S   S  S S  S   S  S S  S   
--------------------------------------------------|
--------------------------------------------------|
--------------------------------------------------|
--------------------------------------------------|
--------------------------------------------------|
--12p-0-0--0--13p-0-0--0--15p-0-0--0--13p-0-0--0--|


        PM PM       PM            PH     
   S  S S  S   S  S S   E.  E     Q      
----------------------------------------|
----------------------------------------|
----------------------------------------|
----------------------------------------|
----------------------------------------|
--12p-0-0--0--13p-0-0--12---0--<>12~----|


        PM PM       PM PM       PM PM       PM PM  
   S  S S  S   S  S S  S   S  S S  S   S  S S  S   
--------------------------------------------------|
--------------------------------------------------|
--------------------------------------------------|
--------------------------------------------------|
--------------------------------------------------|
--12p-0-0--0--13p-0-0--0--15p-0-0--0--13p-0-0--0--|


        PM PM       PM PM      PM      PM PM  
   S  S S  S   S  S S  S  S  S S  E.   S  S   
---------------------------------------------|
---------------------------------------------|
---------------------------------------------|
---------------------------------------------|
---------------------------------------------|
--12p-0-0--0--10p-0-0--0--7p-0-0--5~---0--0--|


        PM PM       PM PM       PM PM       PM    PH  
   S  S S  S   S  S S  S   S  S S  S   S  S S     S   
-----------------------------------------------------|
-----------------------------------------------------|
-----------------------------------------------------|
-----------------------------------------------------|
-----------------------------------------------------|
--12p-0-0--0--13p-0-0--0--15p-0-0--0--13p-0-0--<>12~-|


          PH        PH                                                     
  E  E    Q.        Q.         E  Q    E  H           E  Q    Q    Q.      
----------------------------|----------------------|----------------------|
----------------------------|----------------------|----------------------|
----------------------------|----------------------|----------------------|
--------<>4~----------------|----------7--L--------|----------7-----------|
----------------------------|-----5----------------|-----5---------5------|
--L--0------------<>7~------|--0-------------------|--0-------------------|


  E  Q    E  H           E  Q    Q    Q.        E  Q    E  H         
----------------------|----------------------|----------------------|
----------------------|----------------------|----------------------|
----------------------|----------------------|----------------------|
----------3--L--------|----------5-----------|----------7--L--------|
-----3----------------|-----5---------5------|-----5----------------|
--3-------------------|--5-------------------|--0-------------------|


                                                           PM PM     PM PM      
  E  Q    Q    Q.        E  Q    E  H           E  Q    E  S  S  E   S  S  E    
----------------------|----------------------|------------------------------|
----------------------|----------------------|------------------------------|
----------------------|----------------------|------------------------------|
--L----7--------------|---------5--L---------|-------3----------------------|
-----5---------5------|-----5----------------|-----3------------------------|
----------------------|--5-------------------|--3-------0--0--5~--0--0--3~--|


        PM PM       PM PM       PM PM       PM PM  
   S  S S  S   S  S S  S   S  S S  S   S  S S  S   
--------------------------------------------------|
--------------------------------------------------|
--------------------------------------------------|
--------------------------------------------------|
--------------------------------------------------|
--12p-0-0--0--13p-0-0--0--15p-0-0--0--13p-0-0--0--|


        PM PM       PM PM      PM      PM PM  
   S  S S  S   S  S S  S  S  S S  E.   S  S   
---------------------------------------------|
---------------------------------------------|
---------------------------------------------|
---------------------------------------------|
---------------------------------------------|
--12p-0-0--0--10p-0-0--0--7p-0-0--5~---0--0--|


        PM PM       PM PM       PM PM       PM PM  
   S  S S  S   S  S S  S   S  S S  S   S  S S  S   
--------------------------------------------------|
--------------------------------------------------|
--------------------------------------------------|
--------------------------------------------------|
--------------------------------------------------|
--12p-0-0--0--13p-0-0--0--15p-0-0--0--13p-0-0--0--|


        PM PM       PM            PH                            
   S  S S  S   S  S S   E.  E     Q        E  Q    E  H         
----------------------------------------|----------------------|
----------------------------------------|----------------------|
----------------------------------------|----------------------|
----------------------------------------|----------7--L--------|
----------------------------------------|-----5----------------|
--12p-0-0--0--13p-0-0--12---0--<>12~----|--0-------------------|


  E  Q    Q    Q.        E  Q    E  H           E  Q    Q    Q.      
----------------------|----------------------|----------------------|
----------------------|----------------------|----------------------|
----------------------|----------------------|----------------------|
----------7-----------|----------3--L--------|----------5-----------|
-----5---------5------|-----3----------------|-----5---------5------|
--0-------------------|--3-------------------|--5-------------------|


  E  Q    E  H           E  Q    Q    Q.        E  Q    E  H         
----------------------|----------------------|----------------------|
----------------------|----------------------|----------------------|
----------------------|----------------------|----------------------|
----------7--L--------|--L-------7-----------|----------5--L--------|
-----5----------------|-----5---------5------|-----5----------------|
--0-------------------|----------------------|--5-------------------|


             PM PM     PM PM      
  E  Q    E  S  S  E   S  S  E    
---------------------------------|
---------------------------------|
---------------------------------|
----------3----------------------|
-----3---------------------------|
--3----------0--0--5~--0--0--3~--|


        PM PM       PM PM       PM PM       PM PM  
   S  S S  S   S  S S  S   S  S S  S   S  S S  S   
--------------------------------------------------|
--------------------------------------------------|
--------------------------------------------------|
--------------------------------------------------|
--------------------------------------------------|
--12p-0-0--0--13p-0-0--0--15p-0-0--0--13p-0-0--0--|


        PM PM       PM PM      PM      PM PM  
   S  S S  S   S  S S  S  S  S S  E.   S  S   
---------------------------------------------|
---------------------------------------------|
---------------------------------------------|
---------------------------------------------|
---------------------------------------------|
--12p-0-0--0--10p-0-0--0--7p-0-0--5~---0--0--|


        PM PM       PM PM       PM PM       PM PM  
   S  S S  S   S  S S  S   S  S S  S   S  S S  S   
--------------------------------------------------|
--------------------------------------------------|
--------------------------------------------------|
--------------------------------------------------|
--------------------------------------------------|
--12p-0-0--0--13p-0-0--0--15p-0-0--0--13p-0-0--0--|


        PM PM       PM            PH     
   S  S S  S   S  S S   E.  E     Q      
----------------------------------------|
----------------------------------------|
----------------------------------------|
----------------------------------------|
----------------------------------------|
--12p-0-0--0--13p-0-0--12---0--<>11~----|


        PM PM       PM PM       PM PM       PM PM  
   S  S S  S   S  S S  S   S  S S  S   S  S S  S   
--------------------------------------------------|
--------------------------------------------------|
--------------------------------------------------|
--------------------------------------------------|
--------------------------------------------------|
--12p-0-0--0--13p-0-0--0--15p-0-0--0--13p-0-0--0--|


        PM PM       PM PM      PM      PM PM  
   S  S S  S   S  S S  S  S  S S  E.   S  S   
---------------------------------------------|
---------------------------------------------|
---------------------------------------------|
---------------------------------------------|
---------------------------------------------|
--12p-0-0--0--10p-0-0--0--7p-0-0--5~---0--0--|


        PM PM       PM PM       PM PM       PM    PH  
   S  S S  S   S  S S  S   S  S S  S   S  S S     S   
-----------------------------------------------------|
-----------------------------------------------------|
-----------------------------------------------------|
-----------------------------------------------------|
-----------------------------------------------------|
--12p-0-0--0--13p-0-0--0--15p-0-0--0--13p-0-0--<>12~-|


          PH        PH               PM PM       PM PM       PM PM       PM PM  
  E  E    Q.        Q.          S  S S  S   S  S S  S   S  S S  S   S  S S  S   
-------------------------|--------------------------------------------------|
-------------------------|--------------------------------------------------|
-------------------------|--------------------------------------------------|
--------<>4~-------------|--------------------------------------------------|
-------------------------|--------------------------------------------------|
--L--0---------<>7~------|--12p-0-0--0--13p-0-0--0--15p-0-0--0--13p-0-0--0--|


        PM PM       PM PM      PM      PM PM  
   S  S S  S   S  S S  S  S  S S  E.   S  S   
---------------------------------------------|
---------------------------------------------|
---------------------------------------------|
---------------------------------------------|
---------------------------------------------|
--12p-0-0--0--10p-0-0--0--7p-0-0--5~---0--0--|


        PM PM       PM PM       PM PM       PM    PH  
   S  S S  S   S  S S  S   S  S S  S   S  S S     S   
-----------------------------------------------------|
-----------------------------------------------------|
-----------------------------------------------------|
-----------------------------------------------------|
-----------------------------------------------------|
--12p-0-0--0--13p-0-0--0--15p-0-0--0--13p-0-0--<>12~-|


          PH        PH                                               
  E  E    Q.        Q.         W                   W                 
----------------------------|-------------------|-------------------|
----------------------------|-------------------|-------------------|
----------------------------|-------------------|-------------------|
--------<>4~----------------|--0----------------|--L----------------|
----------------------------|--0----------------|--L----------------|
--L--0------------<>7~------|--0----------------|--L----------------|


  W                   W                   W                   W                 
----------------|-------------------|-------------------|-------------------|
----------------|-------------------|-------------------|-------------------|
----------------|-------------------|-------------------|-------------------|
--3-------------|--5----------------|--0----------------|--L----------------|
--3-------------|--5----------------|--0----------------|--L----------------|
--3-------------|--5----------------|--0----------------|--L----------------|


                               PM PM     PM PM      
  W                   H        S  S  E   S  S  E    
-------------------|-------------------------------|
-------------------|-------------------------------|
-------------------|-------------------------------|
--5----------------|-------------------------------|
--5----------------|-------------------------------|
--5----------------|--3--------0--0--5~--0--0--3~--|


        PM PM       PM PM       PM PM       PM PM  
   S  S S  S   S  S S  S   S  S S  S   S  S S  S   
--------------------------------------------------|
--------------------------------------------------|
--------------------------------------------------|
--------------------------------------------------|
--------------------------------------------------|
--12p-0-0--0--13p-0-0--0--15p-0-0--0--13p-0-0--0--|


        PM PM       PM PM      PM      PM PM  
   S  S S  S   S  S S  S  S  S S  E.   S  S   
---------------------------------------------|
---------------------------------------------|
---------------------------------------------|
---------------------------------------------|
---------------------------------------------|
--12p-0-0--0--10p-0-0--0--7p-0-0--5~---0--0--|


        PM PM       PM PM       PM PM       PM PM  
   S  S S  S   S  S S  S   S  S S  S   S  S S  S   
--------------------------------------------------|
--------------------------------------------------|
--------------------------------------------------|
--------------------------------------------------|
--------------------------------------------------|
--12p-0-0--0--13p-0-0--0--15p-0-0--0--13p-0-0--0--|


        PM PM       PM            PH     
   S  S S  S   S  S S   E.  E     Q      
----------------------------------------|
----------------------------------------|
----------------------------------------|
----------------------------------------|
----------------------------------------|
--12p-0-0--0--13p-0-0--12---0--<>11~----|


        PM PM       PM PM       PM PM       PM PM  
   S  S S  S   S  S S  S   S  S S  S   S  S S  S   
--------------------------------------------------|
--------------------------------------------------|
--------------------------------------------------|
--------------------------------------------------|
--------------------------------------------------|
--12p-0-0--0--13p-0-0--0--15p-0-0--0--13p-0-0--0--|


        PM PM       PM PM      PM      PM PM  
   S  S S  S   S  S S  S  S  S S  E.   S  S   
---------------------------------------------|
---------------------------------------------|
---------------------------------------------|
---------------------------------------------|
---------------------------------------------|
--12p-0-0--0--10p-0-0--0--7p-0-0--5~---0--0--|


        PM PM       PM PM       PM PM       PM    PH  
   S  S S  S   S  S S  S   S  S S  S   S  S S     S   
-----------------------------------------------------|
-----------------------------------------------------|
-----------------------------------------------------|
-----------------------------------------------------|
-----------------------------------------------------|
--12p-0-0--0--13p-0-0--0--15p-0-0--0--13p-0-0--<>12~-|


          PH        PH                                  
                               |-3-| |-3-| |-3-| |-3-|  
  E  E    Q.        Q.         S S S S S S S S S S S S  
----------------------------|--------------------------|
----------------------------|--------------------------|
----------------------------|--------------------------|
--------<>4~----------------|--------------------------|
----------------------------|--5-5-5-5-5-5-5-5-5-5-5-5-|
--L--0------------<>7~------|--------------------------|


     PM PM      PM PM PM       PM PM      PM PM PM       PM PM      PM PM     
  E  E  E  Q    E  E  E     E  E  E  Q    E  E  E     E  E  E  Q    E  E  E   
------------------------|-------------------------|-------------------------|
------------------------|-------------------------|-------------------------|
------------------------|-------------------------|-------------------------|
------------------------|-------------------------|----------------------1--|
--5--0--0--6---0--0--0--|--4--0--0--5----0--0--0--|--5--0--0--6----0--0--1--|
--7--0--0--8---0--0--0--|--6--0--0--7----0--0--0--|--7--0--0--8----0--0--1--|


     PM PM PM PM PM PM PM       PM PM      PM PM PM       PM PM      PM PM PM  
  E  E  E  E  E  E  E  E     E  E  E  Q    E  E  E     E  E  E  Q    E  E  E   
------------------------|-------------------------|-------------------------|
------------------------|-------------------------|-------------------------|
------------------------|-------------------------|-------------------------|
-L----------------------|-------------------------|-------------------------|
-L-0--0--0--0--0--0--0--|--5--0--0--6----0--0--0--|--4--0--0--5----0--0--0--|
-L-0--0--0--0--0--0--0--|--7--0--0--8----0--0--0--|--6--0--0--7----0--0--0--|


     PM PM      PM PM          PM PM PM PM PM PM PM                        
  E  E  E  Q    E  E  E     E  E  E  E  E  E  E  E     Q.     Q.     Q     
-------------------------|--------------------------|---------------------|
-------------------------|--------------------------|---------------------|
-------------------------|--------------------------|---------------------|
----------------------1--|--L-----------------------|--2------2------2----|
--5--0--0--6----0--0--1--|--L--0--0--0--0-----------|--2------3------2----|
--7--0--0--8----0--0--1--|--L--0--0--0--0--1--3--1--|---------------------|


  W                   Q.     Q.     Q       W                 
-------------------|---------------------|-------------------|
-------------------|---------------------|-------------------|
-------------------|---------------------|-------------------|
--L----------------|--2------3------2----|--L----------------|
--L----------------|--2------3------2----|--L----------------|
-------------------|--2------3------2----|--L----------------|


  Q.     Q.     Q       W                   W                 
---------------------|-------------------|-------------------|
---------------------|-------------------|-------------------|
---------------------|-------------------|-------------------|
--4------5------4----|--L----------------|--5----------------|
--4------5------4----|--L----------------|--5----------------|
--4------5------4----|--L----------------|--5----------------|


                                  PM PM       PM PM       PM PM       PM PM  
  E  E  Q    E  E  Q         S  S S  S   S  S S  S   S  S S  S   S  S S  S   
-------------------------|--------------------------------------------------|
-------------------------|--------------------------------------------------|
-------------------------|--------------------------------------------------|
--6--6-------5--5--L\----|--------------------------------------------------|
--6--6-------5--5--L\----|--------------------------------------------------|
--6--6-------5--5--L\----|--12p-0-0--0--13p-0-0--0--15p-0-0--0--13p-0-0--0--|


        PM PM       PM PM      PM      PM PM  
   S  S S  S   S  S S  S  S  S S  E.   S  S   
---------------------------------------------|
---------------------------------------------|
---------------------------------------------|
---------------------------------------------|
---------------------------------------------|
--12p-0-0--0--10p-0-0--0--7p-0-0--5~---0--0--|


        PM PM       PM PM       PM PM       PM PM  
   S  S S  S   S  S S  S   S  S S  S   S  S S  S   
--------------------------------------------------|
--------------------------------------------------|
--------------------------------------------------|
--------------------------------------------------|
--------------------------------------------------|
--12p-0-0--0--13p-0-0--0--15p-0-0--0--13p-0-0--0--|


        PM PM       PM            PH     
   S  S S  S   S  S S   E.  E     Q      
----------------------------------------|
----------------------------------------|
----------------------------------------|
----------------------------------------|
----------------------------------------|
--12p-0-0--0--13p-0-0--12---0--<>12~----|


        PM PM       PM PM       PM PM       PM PM  
   S  S S  S   S  S S  S   S  S S  S   S  S S  S   
--------------------------------------------------|
--------------------------------------------------|
--------------------------------------------------|
--------------------------------------------------|
--------------------------------------------------|
--12p-0-0--0--13p-0-0--0--15p-0-0--0--13p-0-0--0--|


        PM PM       PM PM      PM      PM PM  
   S  S S  S   S  S S  S  S  S S  E.   S  S   
---------------------------------------------|
---------------------------------------------|
---------------------------------------------|
---------------------------------------------|
---------------------------------------------|
--12p-0-0--0--10p-0-0--0--7p-0-0--5~---0--0--|


        PM PM       PM PM       PM PM       PM PM  
   S  S S  S   S  S S  S   S  S S  S   S  S S  S   
--------------------------------------------------|
--------------------------------------------------|
--------------------------------------------------|
--------------------------------------------------|
--------------------------------------------------|
--12p-0-0--0--13p-0-0--0--15p-0-0--0--13p-0-0--0--|


  PM PM       PM PM       PM PM     
  S  S  E  E  S  S  E  E  S  S  E   
-----------------------------------|
-----------------------------------|
-----------------------------------|
--------3--3--------5--5--------3--|
--------3--3--------5--5--------3--|
--0--0--3--3--0--0--5--5--0--0--3--|


        PM PM       PM PM       PM PM       PM PM  
   S  S S  S   S  S S  S   S  S S  S   S  S S  S   
--------------------------------------------------|
--------------------------------------------------|
--------------------------------------------------|
--------------------------------------------------|
--------------------------------------------------|
--12p-0-0--0--13p-0-0--0--15p-0-0--0--13p-0-0--0--|


        PM PM       PM PM      PM      PM PM  
   S  S S  S   S  S S  S  S  S S  E.   S  S   
---------------------------------------------|
---------------------------------------------|
---------------------------------------------|
---------------------------------------------|
---------------------------------------------|
--12p-0-0--0--10p-0-0--0--7p-0-0--5~---0--0--|


        PM PM       PM PM       PM PM       PM PM  
   S  S S  S   S  S S  S   S  S S  S   S  S S  S   
--------------------------------------------------|
--------------------------------------------------|
--------------------------------------------------|
--------------------------------------------------|
--------------------------------------------------|
--12p-0-0--0--13p-0-0--0--15p-0-0--0--13p-0-0--0--|


        PM PM       PM            PH     
   S  S S  S   S  S S   E.  E     Q      
----------------------------------------|
----------------------------------------|
----------------------------------------|
----------------------------------------|
----------------------------------------|
--12p-0-0--0--13p-0-0--12---0--<>11~----|


        PM PM       PM PM       PM PM       PM PM  
   S  S S  S   S  S S  S   S  S S  S   S  S S  S   
--------------------------------------------------|
--------------------------------------------------|
--------------------------------------------------|
--------------------------------------------------|
--------------------------------------------------|
--12p-0-0--0--13p-0-0--0--15p-0-0--0--13p-0-0--0--|


        PM PM       PM PM      PM      PM PM  
   S  S S  S   S  S S  S  S  S S  E.   S  S   
---------------------------------------------|
---------------------------------------------|
---------------------------------------------|
---------------------------------------------|
---------------------------------------------|
--12p-0-0--0--10p-0-0--0--7p-0-0--5~---0--0--|


        PM PM       PM PM       PM PM       PM PM  
   S  S S  S   S  S S  S   S  S S  S   S  S S  S   
--------------------------------------------------|
--------------------------------------------------|
--------------------------------------------------|
--------------------------------------------------|
--------------------------------------------------|
--12p-0-0--0--13p-0-0--0--15p-0-0--0--13p-0-0--0--|


  PM PM       PM PM       PM PM     
  S  S  E  E  S  S  E  E  S  S  E   
-----------------------------------|
-----------------------------------|
-----------------------------------|
--------3--3--------5--5--------3--|
--------3--3--------5--5--------3--|
--0--0--3--3--0--0--5--5--0--0--3--|


        PM PM       PM PM       PM PM       PM PM  
   S  S S  S   S  S S  S   S  S S  S   S  S S  S   
--------------------------------------------------|
--------------------------------------------------|
--------------------------------------------------|
--------------------------------------------------|
--------------------------------------------------|
--12p-0-0--0--13p-0-0--0--15p-0-0--0--13p-0-0--0--|


        PM PM       PM PM      PM      PM PM  
   S  S S  S   S  S S  S  S  S S  E.   S  S   
---------------------------------------------|
---------------------------------------------|
---------------------------------------------|
---------------------------------------------|
---------------------------------------------|
--12p-0-0--0--10p-0-0--0--7p-0-0--5~---0--0--|


        PM PM       PM PM       PM PM       PM PM  
   S  S S  S   S  S S  S   S  S S  S   S  S S  S   
--------------------------------------------------|
--------------------------------------------------|
--------------------------------------------------|
--------------------------------------------------|
--------------------------------------------------|
--12p-0-0--0--13p-0-0--0--15p-0-0--0--13p-0-0--0--|


        PM PM       PM            PH     
   S  S S  S   S  S S   E.  E     Q      
----------------------------------------|
----------------------------------------|
----------------------------------------|
----------------------------------------|
----------------------------------------|
--12p-0-0--0--13p-0-0--12---0--<>11~----|


        PM PM       PM PM       PM PM       PM PM  
   S  S S  S   S  S S  S   S  S S  S   S  S S  S   
--------------------------------------------------|
--------------------------------------------------|
--------------------------------------------------|
--------------------------------------------------|
--------------------------------------------------|
--12p-0-0--0--13p-0-0--0--15p-0-0--0--13p-0-0--0--|


        PM PM       PM PM      PM      PM PM  
   S  S S  S   S  S S  S  S  S S  E.   S  S   
---------------------------------------------|
---------------------------------------------|
---------------------------------------------|
---------------------------------------------|
---------------------------------------------|
--12p-0-0--0--10p-0-0--0--7p-0-0--5~---0--0--|


        PM PM       PM PM       PM PM       PM PM  
   S  S S  S   S  S S  S   S  S S  S   S  S S  S   
--------------------------------------------------|
--------------------------------------------------|
--------------------------------------------------|
--------------------------------------------------|
--------------------------------------------------|
--12p-0-0--0--13p-0-0--0--15p-0-0--0--13p-0-0--0--|


  PM PM       PM PM       PM PM                                           
  S  S  E  E  S  S  E  E  S  S  E     E  E  H.                            
-----------------------------------|---------------------|
-----------------------------------|---------------------|
-----------------------------------|---------------------|
--------3--3--------5--5--------3--|--0------------------|
--------3--3--------5--5--------3--|--0------------------|
--0--0--3--3--0--0--5--5--0--0--3--|--0------------------|





Comments


Popular Kamelot tabs & chords
On The Coldest Winter Night Chords
Song For Jolee Chords
A Sailorman's Hymn Tabs
Blcher Intro Tabs
Edge Of Paradise Tabs
Elizabeth Imirror Mirror Intro Tabs
Haunting Somewhere In Time Tabs
Haunting Somewhere In Time 1 Tabs
Nights Of Arabia Tabs
The Fourth Legacy 1 Tabs


Song lyrics



↑ Back to top | Tablatures and chords are parodies/interpretations of the original songs. You may use it for private study, scholarship, research or language learning purposes only
© 2014 AZChords.com Contact us | Privacy policy | DMCA | Add/correct tabs | Request tabs | Top 50 tabs