» » »

Kamelot, On The Coldest Winter Night Bass tabs (ver.2)

Artists:  A B C D E F G H I J K L M N O P Q R S T U V W X Y Z # 

On The Coldest Winter Night Bass tabs (ver.2)

Kamelot Tabs
Rating:
0/5 (0 votes)
On The Coldest Winter Night lessons Tabs too difficult? Try these video lessons and learn fast
                Artist	:	Kamelot
Song	:	On the coldest winter night
Album	:	Epica (2003)

Standard tuning (EADG)

Bass starts at 0:05

Intro (4X)
G|----------------------------------------|
D|----------------------------------------|
A|------------6-6-------2-2---------------|
E|-4-4---------------------------0-0------|

Verse (4X)
G|-----------------------------------|
D|-----------------------------------|
A|----------6~-------2~--------------|
E|-4~------------------------0~------|

Chorus
G|-------------------------------------------------------|
D|-------------------------------------------------------|
A|-4~----------------4~----------------0~----------------|
E|----------4~----------------4~----------------2~-------|

G|------------------------------------|
D|------------------------------------|
A|-4~----------------2~------0~-------|
E|----------4~------------------------|

Verse (4X)

Chorus

Bridge
G|----------------------------------------------------------------|
D|----------------------------------------------------------------|
A|-6--6--6-6-6-6----6--6--6-6-6-6---6--6--6-6-6-6---6--6--6--6--6-|
E|----------------------------------------------------------------|

Verse (4X)

Chorus

Have Fun


	
            

comments powered by Disqus
↑ Back to top | Kamelot Bass for On The Coldest Winter Night. Lyrics for acoustic guitar and electric guitar. Tablatures and chords are parodies/interpretations of the original songs. You may use it for private study, scholarship, research or language learning purposes only