>
 >
Haunting Somewhere In Time 1

Haunting Somewhere In Time 1 Guitar Tabs

Kamelot - Haunting Somewhere In Time 1 chords, tabs, tablatures, lyrics

Guitar lessons | Add/correct | Request | Top 50 tabs Artists:  A B C D E F G H I J K L M N O P Q R S T U V W X Y Z 0-9

Haunting Somewhere In Time 1 Guitar Tabs – Kamelot

CD, Sheet music, Poster

Do you like Haunting Somewhere In Time 1? Share with your friends now
ChordsTabsTabs v2Ukulele
----------------------------------------------------------------------------
                       THE HAUNTING (SOMEWHERE IN TIME) - Kamelot
----------------------------------------------------------------------------


Tuning:
Gtr I (C# G# C# F# A# D#) - 'Rhythm Guitar'
Gtr II (C# G# C# F# A# D#) - 'Lead Guitar'
Gtr III (C# G# C# F# A# D#) - 'Clean Guitar'

 Intro
  Q=120
 4/4
  Gtr I
  Wx8
|--------|
|--------|
|--------|
|--------|
|--------|
|--------|


 Verse
  |3|                      |3|    |3|      |3|
  Q E Q  H      W          Q E Q  Q E Q    Q E Q  H
|-------------|----------|---------------|-------------|
|-------------|----------|---------------|-------------|
|-------------|----------|---------------|-------------|
|-0-0---------|----------|-3-3----3-3----|-5-5---------|
|-0-0---------|----------|-1-1----1-1----|-3-3---------|
|-0-0---------|----------|-0-0----0-0----|-0-0---------|


                                           PM----|
  |3|                      |3|    |3|      |-3-| |3| |-3-|
  Q E Q  H      W          Q E Q  Q E Q    E E E Q E E E E  Q
|-------------|----------|---------------|----------------------|
|-------------|----------|---------------|----------------------|
|-------------|----------|---------------|----------------------|
|-0-0---------|----------|-3-3----3-3----|----------------------|
|-0-0---------|----------|-1-1----1-1----|---3-x-3-3-3S5-5-[5]--|
|-0-0---------|----------|-0-0----0-0----|-0--------------------|


  |3|                       |3|
  Q E Q  H      W           Q E Q  H      W
|-------------|-----------|-------------|------|
|-------------|-----------|-------------|------|
|-------------|-----------|-------------|------|
|-0-0---------|-----------|-3-3---------|------|
|-0-0---------|-----------|-1-1---------|------|
|-0-0---------|-----------|-0-0---------|------|
|
| Gtr III
| W             H    H      W             W
|-------------|------5----|-------------|------|
|-------------|------3----|-------------|------|
|-------------|------2----|-------------|------|
|-------------|------0----|-------------|------|
|-------------|-----------|-------------|------|
|-------------|-----------|-------------|------|


  |3|                       |3|
  Q E Q  H      W           Q E Q  H      W
|-------------|-----------|-------------|------|
|-------------|-----------|-------------|------|
|-------------|-----------|-------------|------|
|-0-0---------|-----------|-0-0---------|------|
|-0-0---------|-----------|-0-0---------|------|
|-0-0---------|-----------|-0-0---------|------|
|
| W             H    H      W             W
|-------------|------5----|-------------|------|
|-------------|------3----|-------------|------|
|-------------|------2----|-------------|------|
|-------------|------0----|-------------|------|
|-------------|-----------|-------------|------|
|-------------|-----------|-------------|------|


 Pre-Chorus
  W          +W           +W           +W
|----------|------------|------------|--------|
|----------|------------|------------|--------|
|----------|------------|------------|--------|
|-0--------|-(0)--------|-(0)--------|-(0)----|
|-0--------|-(0)--------|-(0)--------|-(0)----|
|-0--------|-(0)--------|-(0)--------|-(0)----|


  +W           +W           +W           +W
|------------|------------|------------|--------|
|------------|------------|------------|--------|
|------------|------------|------------|--------|
|-(0)--------|-(0)--------|-(0)--------|-(0)----|
|-(0)--------|-(0)--------|-(0)--------|-(0)----|
|-(0)--------|-(0)--------|-(0)--------|-(0)----|


 Chorus
  $
  PM--|
  |-3-|
  E E E H.        W          W          H    H
|---------------|----------|----------|-----------|
|---------------|----------|----------|-----------|
|---------------|----------|-5--------|-----------|
|-------0-------|-3--------|-5--------|-3----2----|
|-0-0-0-0-------|-3--------|-3--------|-3----3----|
|-0-0-0-0-------|-3--------|----------|-3---------|


  PM--|                                           PM  PM
  |-3-|                                 |-3-| |3| |-3-| |-3-|
  E E E H.        W          W          E E E E Q E E E E E E
|---------------|----------|----------|-----------------------|
|---------------|----------|----------|-----------------------|
|---------------|----------|-5--------|-----------------------|
|-------0-------|-3--------|-5--------|-2---3p2-----2---3---2-|
|-0-0-0-0-------|-3--------|-3--------|---3-----3-3---3---3---|
|-0-0-0-0-------|-3--------|----------|-----------------------|


  PM--|           PM--|           PM--|
  |-3-|           |-3-|           |-3-|
  E E E H.        E E E H.        E E E H.        H    H
|---------------|---------------|---------------|-----------|
|---------------|---------------|---------------|-6----5----|
|---------------|---------------|-------5-------|-----------|
|-------0-------|-------3-------|-5-5-5-5-------|-3----2----|
|-0-0-0-0-------|-3-3-3-3-------|-3-3-3-3-------|-----------|
|-0-0-0-0-------|-3-3-3-3-------|---------------|-----------|


                                                            To Coda
  PM--|           PM--|           PM--|                PM  PM
  |-3-|           |-3-|           |-3-|                |-3-| |-3-|
  E E E H.        E E E H.        E E E H.        H    E E E E E E
|---------------|---------------|---------------|-------------------|
|---------------|---------------|---------------|-6-----------------|
|---------------|---------------|-------5-------|-------------------|
|-------0-------|-------3-------|-5-5-5-5-------|-3------2---3p2----|
|-0-0-0-0-------|-3-3-3-3-------|-3-3-3-3-------|------3---3-----3--|
|-0-0-0-0-------|-3-3-3-3-------|---------------|-------------------|


 Pre-Verse
  PM--|
  |-3-|           |3|
  E E E Q  H      Q E Q  H
|---------------|-------------|
|---------------|-------------|
|---------------|-------------|
|---------------|-0-0---------|
|-0-0-0---------|-0-0---------|
|-0-0-0---------|-0-0---------|


  PM--|   PM----------------|   PM  PM--|   PM~
  |-3-| |-3-| |-3-| |-3-|   |-3-| |-3-| |-3-|
  E E E E E E E E E E E E   E E E E E E E E E Q
|-------------------------|-----------------------|
|-------------------------|-----------------------|
|-------------------------|-----------------------|
|-------------------------|-----------------------|
|-0-0-0-1-0-0-0-0-0-0-0-0-|-0-1-0-1-0-0-0-1-0-1---|
|-0-0-0---0-0-0-0-0-0-0-0-|-0---0---0-0-0---0-----|


   Verse
    |3|           |3|           |3|           |3|    |3|
    Q E Q  H      Q E Q  H      Q E Q  H      Q E Q  Q E Q
||--------------|-------------|-------------|-----------------||
||o-------------|-------------|-------------|----------------o||
||--------------|-------------|-------------|-----------------||
||--0-0---------|-0-0---------|-3-3---------|-3-3-3--5-5-5----||
||o-0-0---------|-0-0---------|-1-1---------|-1-1-1--3-3-3---o||
||--0-0---------|-0-0---------|-0-0---------|-0-0-0--0-0-0----||
|
|   Gtr III
|   W             H      H      W             W
||--------------|--------5----|-------------|-----------------||
||o-------------|--------3----|-------------|----------------o||
||--------------|--------2----|-------------|-----------------||
||--------------|--------0----|-------------|-----------------||
||o-------------|-------------|-------------|----------------o||
||--------------|-------------|-------------|-----------------||


   Verse
        PM--------------|       PM--------------|
    |3| |-3-| |-3-| |-3-|   |3| |-3-| |-3-| |-3-|
    Q E E E E E E E E E E   Q E E E E E E E E E E
||------------------------|-----------------------|
||o-----------------------|-----------------------|
||------------------------|-----------------------|
||--0-0-------------------|-0-0-------------------|
||o-0-0-------------------|-0-0-------------------|
||--0-0-0-0-0-0-0-0-0-0-0-|-0-0-0-0-0-0-0-0-0-0-0-|


      PM--------------|
  |3| |-3-| |-3-| |-3-|   |3|    |3|
  Q E E E E E E E E E E   Q E Q  Q E Q
|-----------------------|------------------||
|-----------------------|-----------------o||
|-----------------------|------------------||
|-3-3-------------------|-3-3-3--5-5-5-----||
|-1-1-------------------|-1-1-1--3-3-3----o||
|-0-0-0-0-0-0-0-0-0-0-0-|-0-0-0--0-0-0-----||


                              D.S. al Coda
  W          W          W          H    H
|----------|----------|----------|-----------|
|----------|----------|----------|-----------|
|----------|-3--------|----------|-5---------|
|-0--------|-3--------|-3--------|-5---------|
|-0--------|-1--------|-3--------|-3---------|
|-0--------|----------|-3--------|-----------|


 Bridge
  &
  W          W          W          H    Q  Q
|----------|----------|----------|------------|
|----------|----------|----------|------------|
|-3--------|----------|-2--------|------7--5--|
|-3--------|-5--------|-2--------|-0----7--5--|
|-1--------|-5--------|-0--------|-0----5--3--|
|----------|-5--------|----------|-0----------|


  W          W          H    H      H    H      W          W
|----------|----------|-----------|-----------|----------|------|
|----------|----------|-----------|-----------|----------|------|
|-3--------|-2--------|-7----5----|-4---------|----------|------|
|-3--------|-2--------|-7----5----|-5---------|----------|------|
|-1--------|-0--------|-5----3----|-2----5----|-1p=======|=0----|
|----------|----------|-----------|------5----|----------|------|


 Guitar Solo
   PM---|
   |-3--|
   E  E E H.           W               W             H     H
|--------------------|--------------|--------------|---------------|
|--------------------|--------------|--------------|---------------|
|--------------------|--------------|--5-----------|---------------|
|---------0----------|-3------------|--5-----------|-3-----2-------|
|--0--0-0-0----------|-3------------|--3-----------|-3-----3-------|
|--0--0-0-0----------|-3------------|--------------|-3-------------|
|
| Gtr II
|  ~~~
|  H.             Q    Q  Q  Q  E E   +H      H      Q  Q  Q  E E
|--------------------|--------------|--------------|---------------|
|-[3]-----------/10--|-8--6--5--6-5-|-(5)----/8----|-6--5--5-------|
|--------------------|--------------|--------------|----------5----|
|--------------------|--------------|--------------|------------7--|
|--------------------|--------------|--------------|---------------|
|--------------------|--------------|--------------|---------------|


   PM---|
   |-3--|
   E  E E H.           W               W
|--------------------|--------------|---------------|
|--------------------|--------------|---------------|
|--------------------|--------------|--5------------|
|---------0----------|-3------------|--5------------|
|--0--0-0-0----------|-3------------|--3------------|
|--0--0-0-0----------|-3------------|---------------|
|
| +H            H      Q  Q  Q  E E   +H       H
|--------------------|--------------|---------------|
|-------------/10----|-8--6--5--6S8-|-(8)----/11----|
|--------------------|--------------|---------------|
|-(7)----------------|--------------|---------------|
|--------------------|--------------|---------------|
|--------------------|--------------|---------------|


                        PM   PM
      |--3--|  |3-|     |-3--|  |-3--|
      E  E  E  E  Q     E  E E  E E  E
|---------------------------------------|
|---------------------------------------|
|---------------------------------------|
|-----2-----3p=2-----------2----3----2--|
|--------3--------3-----3----3----3-----|
|---------------------------------------|
|
|           PM    PM--------------|
|     |--3--|  |--3--|  |-3--|  |-3--|
|  a  E  E  E  E  E  E  E  E E  E E  E
|---------------------------------------|
|-10h11p10----10--------------------10S=|
|----------12----12-10-12-10-9-10-9-----|
|---------------------------------------|
|---------------------------------------|
|---------------------------------------|


   PM---|                                PM-----|
   |-3--|                                |---3---|
   E  E E H.                             E    E  E H.
|-------------------------------------|----------------------------|
|-------------------------------------|----------------------------|
|-------------------------------------|----------------------------|
|---------0---------------------------|------------3---------------|
|--0--0-0-0---------------------------|--3----3--3-3---------------|
|--0--0-0-0---------------------------|--3----3--3-3---------------|
|
|                    |--3--|  |--3--|    |------3------|  |--3--|
|  Q.         +E     E  E  E  E  E  E    Q       q     q  q  Q  Q
|------------------/13-13-12-13-15-15-|-15b17r==15----13-12-13-12--|
|-15---------(15)\--------------------|----------------------------|
|-------------------------------------|----------------------------|
|-------------------------------------|----------------------------|
|-------------------------------------|----------------------------|
|-------------------------------------|----------------------------|


   PM---|
   |-3--|
   E  E E H.
|-----------------------------|
|-----------------------------|
|---------5-------------------|
|--5--5-5-5-------------------|
|--3--3-3-3-------------------|
|-----------------------------|
|
|                    |--3--|
|  Q.         +E     Q  Q  Q
|-----------------------------|
|-13---------(13)\-/11-10-11--|
|-----------------------------|
|-----------------------------|
|-----------------------------|
|-----------------------------|


      H                   H
|--------------------------------------------------|
|-----6-------------------5------------------------|
|--------------------------------------------------|
|-----3-------------------2------------------------|
|--------------------------------------------------|
|--------------------------------------------------|
|
|        T        T       T            T     T
|                                      |---3----|
|  a  E  E  a  S  S S  S  S  S  S   S  E  a  E  E
|--------------------------------------------------|
|-10h11-18p11p10-17p8h10-17-\6-17p/10-18p10-17-/8S=|
|--------------------------------------------------|
|--------------------------------------------------|
|--------------------------------------------------|
|--------------------------------------------------|


   PM---|                                 PM---|
   |--3--|                                |--3--|
   E  E  E  H.                            E  E  E  H.
|--------------------------------------|-------------------------------------------|
|--------------------------------------|-------------------------------------------|
|--------------------------------------|-------------------------------------------|
|-----------0--------------------------|-----------3-------------------------------|
|--0--0--0--0--------------------------|--3--3--3--3-------------------------------|
|--0--0--0--0--------------------------|--3--3--3--3-------------------------------|
|
|                                                         ~~~~~~                ~~~~
|  |--3--|  |--3---|  |--3--|  |--3--|    |--3--|  |--3---|      |-----3-----|
|  E  E  E  E   E  E  E  E  E  E  E  E    E  E  E  E   E  E     +E   S  S  S S  Q
|-------13-----12----10-------13----12-|-------------------------------------------|
|-10-10----10-----11----11-10----10----|-11-11-10-----10---------------------------|
|--------------------------------------|----------12-----12b14r(12)-10h12p10s9-10--|
|--------------------------------------|-------------------------------------------|
|--------------------------------------|-------------------------------------------|
|--------------------------------------|-------------------------------------------|


  PM--|                                PM   PM
  |-3-|                                |-3--| |----3-----|
  E E E H.                   H         E E  E E   E      E
|----------------------|---------------------------------------|
|----------------------|-----6---------------------------------|
|-------5--------------|---------------------------------------|
|-5-5-5-5--------------|-----3-----------2----3p==2------------|
|-3-3-3-3--------------|---------------3----3------------3-----|
|----------------------|---------------------------------------|
|
|~~~
|             |--3--|        |--3--|   |---------3----------|
| H           Q  Q  Q     a  Q  Q  Q   Q    Q    +S   S  S  S
|------------------12--|-12-13-12----/15---13---(13)-12h13p12--|
|-----------/13-15-----|----------13---------------------------|
|-9--------------------|---------------------------------------|
|----------------------|---------------------------------------|
|----------------------|---------------------------------------|
|----------------------|---------------------------------------|


 Interlude
   |---3---|
   Q       E Q  H      Wx7
|--------------------|--------|
|--------------------|--------|
|--------------------|--------|
|--0-------0---------|--------|
|--0-------0---------|--------|
|--0-------0---------|--------|
|
|  ~~
|  E  +E     Q  H      Wx7
|--------------------|--------|
|-15-(15)\-----------|--------|
|--------------------|--------|
|--------------------|--------|
|--------------------|--------|
|--------------------|--------|


 Chorus
  PM--|
  |-3-|
  E E E H.        W          W          H    H
|---------------|----------|----------|-----------|
|---------------|----------|----------|-----------|
|---------------|----------|-6--------|-----------|
|-------1-------|-4--------|-6--------|-4----3----|
|-1-1-1-1-------|-4--------|-4--------|-4----4----|
|-1-1-1-1-------|-4--------|----------|-4---------|


  PM--|                                      PM  PM
  |-3-|                                      |-3-| |-3-|
  E E E H.        W          W          H    E E E E E E
|---------------|----------|----------|-------------------|
|---------------|----------|----------|-------------------|
|---------------|----------|-6--------|-------------------|
|-------1-------|-4--------|-6--------|-3------3---4p3----|
|-1-1-1-1-------|-4--------|-4--------|-4----4---4-----4--|
|-1-1-1-1-------|-4--------|----------|-------------------|


  PM--|           PM--|           PM--|
  |-3-|           |-3-|           |-3-|
  E E E H.        E E E H.        E E E H.        H    H
|---------------|---------------|---------------|-----------|
|---------------|---------------|---------------|-7----6----|
|---------------|---------------|-------6-------|-----------|
|-------1-------|-------4-------|-6-6-6-6-------|-4----3----|
|-1-1-1-1-------|-4-4-4-4-------|-4-4-4-4-------|-----------|
|-1-1-1-1-------|-4-4-4-4-------|---------------|-----------|


  PM--|           PM--|           PM--|                PM  PM
  |-3-|           |-3-|           |-3-|                |-3-| |-3-|
  E E E H.        E E E H.        E E E H.        H    E E E E E E
|---------------|---------------|---------------|-------------------|
|---------------|---------------|---------------|-7-----------------|
|---------------|---------------|-------6-------|-------------------|
|-------1-------|-------4-------|-6-6-6-6-------|-4------3---4p3----|
|-1-1-1-1-------|-4-4-4-4-------|-4-4-4-4-------|------4---4-----4--|
|-1-1-1-1-------|-4-4-4-4-------|---------------|-------------------|


 Out-Chorus
  PM--|
  |-3-|
  E E E H.          W               W            H     H
|-----------------|--------------|-------------|---------------|
|-----------------|--------------|-------------|---------------|
|-----------------|--------------|--6----------|---------------|
|-------1---------|-4------------|--6----------|-4-----3-------|
|-1-1-1-1---------|-4------------|--4----------|-4-----4-------|
|-1-1-1-1---------|-4------------|-------------|-4-------------|
|
| Gtr II
| H          H      Q  Q  Q  E E   +H     H      Q  Q  Q  E E
|-----------------|--------------|-------------|---------------|
|-----------11----|-9--7--6--7-6-|-(6)----9----|-7--6--6-------|
|-8---------------|--------------|-------------|----------6----|
|-----------------|--------------|-------------|------------8--|
|-----------------|--------------|-------------|---------------|
|-----------------|--------------|-------------|---------------|


  PM--|
  |-3-|
  E E E H.          W               W
|-----------------|--------------|--------------|
|-----------------|--------------|--------------|
|-----------------|--------------|--6-----------|
|-------1---------|-4------------|--6-----------|
|-1-1-1-1---------|-4------------|--4-----------|
|-1-1-1-1---------|-4------------|--------------|
|
| H          H      Q  Q  Q  E E   +H      H
|-----------------|--------------|--------------|
|-----------11----|-9--7--6--7S9-|-(9)----12----|
|-----------------|--------------|--------------|
|-8---------------|--------------|--------------|
|-----------------|--------------|--------------|
|-----------------|--------------|--------------|


                        PM    PM
                        |--3--|  |--3--|
      H                 E  E  E  E  E  E
|----------------------------------------|
|----------------------------------------|
|----------------------------------------|
|-----3--------------------3-----4p=3----|
|-----4-----------------4-----4--------4-|
|----------------------------------------|
|
|     |--3--|  |--3--|  |--3--|  |--3--|
|  a  E  E  E  E  E  E  E  E  E  E  E  E
|----------------------------------------|
|-11h12p11----11-------------------------|
|----------13----13-11-10-13-11-10-------|
|----------------------------------13-11-|
|----------------------------------------|
|----------------------------------------|


   PM--|             PM--|               PM---|
   |-3-|             |-3-|               |-3--|
   E E E H.          E E E H.            E  E E H.         H     H
|------------------|------------------|------------------|---------------------|
|------------------|------------------|------------------|-7-----6-------------|
|------------------|------------------|---------6--------|---------------------|
|--------1---------|-------4----------|--6--6-6-6--------|-4-----3-------------|
|--1-1-1-1---------|-4-4-4-4----------|--4--4-4-4--------|---------------------|
|--1-1-1-1---------|-4-4-4-4----------|------------------|---------------------|
|
|  H          H      Q     Q   Q  E E   +H          H      Q  Q  E +S    S E E
|------------------|------------------|------------------|---------------------|
|------------11----|-9-----7---6--7-6-|-(6)---------9----|-7--6--6-(6)b7r6-----|
|------------------|------------------|------------------|-----------------6---|
|-13---------------|------------------|------------------|-------------------8-|
|------------------|------------------|------------------|---------------------|
|------------------|------------------|------------------|---------------------|


  PM--|              PM--|
  |-3-|              |-3-|
  E E E H.           E E E H.
|------------------|------------------|
|------------------|------------------|
|------------------|------------------|
|-------1----------|-------4----------|
|-1-1-1-1----------|-4-4-4-4----------|
|-1-1-1-1----------|-4-4-4-4----------|
|
| H           H      Q     Q   Q  E E
|------------------|------------------|
|-----------/11----|-9-----7---6--7S9-|
|------------------|------------------|
|-8----------------|------------------|
|------------------|------------------|
|------------------|------------------|


   PM---|                   PM  PM          PM
   |-3--|                   |-3-| |-3-| |-3-| |-3--|
   E  E E H.                E E E E E E E E E E  E E
|-------------------------|--------------------------|
|-------------------------|--------------------------|
|---------6---------------|--------------------------|
|--6--6-6-6---------------|---3---4p3-----3---4p=3---|
|--4--4-4-4---------------|-4---4-----4-x---4------4-|
|-------------------------|--------------------------|
|
|             T   T   T     T   T   T   T   T    T
|             |-3-| |-3-|   |-3-| |-3-| |-3-| |-3--|
| +H          E E E E E E   E E E E E E E E E E  E E
|-------------------------|--------------------------|
|-(9)---------------------|--------------------------|
|-------------4-1-3-1-6-1-|-4-1-3-1-4-1-6-1-8-1-10-1-|
|-------------------------|--------------------------|
|-------------------------|--------------------------|
|-------------------------|--------------------------|


  PM--|     PM--|   PM--------|   PM------|   PM---
  |-3-|     |-3-| |-3-|   |-3-| |-3-| |-3-| |-3-|
  E E E Q   E E E E E E   E E E E E E E E E E E E
|-----------------------|-------------------------|
|-----------------------|-------------------------|
|-----------------------|-------------------------|
|-------1---------1-----|-------4-----------4-----|
|-1-1-1-1---1-1-1-1-1-1-|-4-4-4-4-4-4-4-4-4-4-4-4-|
|-1-1-1-1---1-1-1-1-1-1-|-4-4-4-4-4-4-4-4-4-4-4-4-|
|
|                                           |-3-|
| H         H             Q     Q     Q     Q   E
|-----------------------|-------------------------|
|----------11-----------|-9-----7-----6-----7-----|
|-8---------------------|-----------------------8s|
|-----------------------|-------------------------|
|-----------------------|-------------------------|
|-----------------------|-------------------------|


 ------|    PM----------------------|        PM   PM
   |-3-|    |-3-|  |--3---|   |--3--|        |-3--| |-3-|
   E E E Q  E E E  E  E   E   E E   E Q      E  E E E E E
|---------------------------|--------------------------------|
|---------------------------|---------6----------------------|
|--------6------------------|---------6----------------------|
|--6-6-6-6--6-6-6--6--6---6-|-6-6---6-6---------3---4p3------|
|--4-4-4-4--4-4-4--4--4---4-|-4-4---4-4------4----4-----4----|
|---------------------------|--------------------------------|
|
|  ~~
|                             |--3--| |-3--| |-3--| |-3-|
|  H        Q     +E    E     E S S E E  E E E  E E E E E
|---------------------------|--------------------------------|
|-----------9-----(9)---7---|-7-9p7p6------------------------|
|-10------------------------|---------6-10-8-6-10-8-6--------|
|---------------------------|-------------------------9-8----|
|---------------------------|--------------------------------|
|---------------------------|--------------------------------|


    PM--|     PM--|   PM---------|   PM-------|   PM---
    |-3-|     |-3-| |-3-|    |-3-| |-3-|  |-3-| |-3-|
    E E E Q   E E E E E E    E E E E E E  E E E E E E
|-------------------------|---------------------------|
|-------------------------|---------------------------|
|-------------------------|---------------------------|
|---------1---------1-----|--------4------------4-----|
|---1-1-1-1---1-1-1-1-1-1-|--4-4-4-4-4-4--4-4-4-4-4-4-|
|---1-1-1-1---1-1-1-1-1-1-|--4-4-4-4-4-4--4-4-4-4-4-4-|
|
|             |---3---|      |---3---|    |---3---|
| a H         Q   Q   Q      Q   Q   Q    Q   Q   Q
|-------------------------|---------------------------|
|------------11---9---7---|-11---9---7---11---9---7---|
|-------------------------|---------------------------|
|-6-8---------------------|---------------------------|
|-------------------------|---------------------------|
|-------------------------|---------------------------|


 -----|     PM-------------------|           PM   PM
  |-3-|     |-3--| |-3--|    |-3--|          |-3--| |--3--|
  E E E Q   E E  E E  E E    E E  E Q        E E  E E  E  E
|-------------------------|----------------------------------|
|-------------------------|---------6------------------------|
|-------6-----------------|---------6------------------------|
|-6-6-6-6---6-6--6-6--6-6-|--6-6--6-6----------3----4p=3-----|
|-4-4-4-4---4-4--4-4--4-4-|--4-4--4-4--------4----4-------4--|
|-------------------------|----------------------------------|
|
|           |-3--| |-3--|    |-3--| |3-|     |-3--| |--3--|
| H         E E  E E  E E    E E  E E  Q     E E  E E  E  E
|-------------------------|----------------------------------|
|-9-----------------------|----------------------------------|
|-------------8-10p8-11p8-|-13p8-11p8-10b11r10-8----8-10-----|
|----------11-------------|----------------------11------11--|
|-------------------------|----------------------------------|
|-------------------------|----------------------------------|


  PM---|         PM--|     PM----------|   PM------|   PM|
  |-3--|         |-3--| |-3--|     |-3-| |-3-| |-3-| |-3-|
  E  E E Q       E E  E E  E E     E E E E E E E E E E E E
|------------------------------|---------------------------*|
|------------------------------|---------------------------*|
|------------------------------|---------------------------*|
|--------1--------------1------|---------4-----------4-----*|
|-1--1-1-1-------1-1--1-1--1-1-|---4-4-4-4-4-4-4-4-4-4-4-4-*|
|-1--1-1-1-------1-1--1-1--1-1-|---4-4-4-4-4-4-4-4-4-4-4-4-*|
|
| ~~                               ~~~
|                |----3----|
| Q.       +E    Q    Q    Q       W
|------------------------------|---------------------------*|
|------------------------------|-/14-----------------------*|
|-8--------(8)\-/8---10---11---|---------------------------*|
|------------------------------|---------------------------*|
|------------------------------|---------------------------*|
|------------------------------|---------------------------*|


Duration Legend
---------------
W - whole; H - half; Q - quarter; E - 8th; S - 16th; T - 32nd; X - 64th; a - acciaccatura
+ - note tied to previous; . - note dotted; .. - note double dotted
Uncapitalized letters represent notes that are staccato (1/2 duration)
Irregular groupings are notated above the duration line
Duration letters will always appear directly above the note/fret number it represents the
duration for.  Duration letters with no fret number below them represent rests.  Multi-
bar rests are notated in the form Wxn, where n is the number of bars to rest for.  Low
melody durations appear below the staff

Tablature Legend
----------------
 h   - hammer-on
 p   - pull-off
 b   - bend
 pb  - pre-bend
 r   - bend release (if no number after the r, then release immediately)
 /\  - slide into or out of (from/to "nowhere")
 s   - legato slide
 S   - shift slide
  - natural harmonic
[n]  - artificial harmonic
n(n) - tapped harmonic
 ~   - vibrato
 tr  - trill
 T   - tap
 TP  - trem. picking
 PM  - palm muting
\n/  - tremolo bar dip; n = amount to dip
 \n  - tremolo bar down
 n/  - tremolo bar up
/n\  - tremolo bar inverted dip
 =   - hold bend; also acts as connecting device for hammers/pulls
 <>  - volume swell (louder/softer)
 x   - on rhythm slash represents muted slash
 o   - on rhythm slash represents single note slash

Misc Legend
-----------
 |  - bar
||  - double bar
||o - repeat start
o|| - repeat end
*|  - double bar (ending)
 :  - bar (freetime)
 $  - Segno
 &  - Coda
Tempo markers -  = BPM(8/16=s8/s16), where s8 = swing 8ths, s16 = swing 16ths


***************************************************************************************
***************************************************************************************





Comments


Popular Kamelot tabs & chords
A Sailormans Hymn Chords
Ne Pleure Pas Chords
Temples Of Gold Chords
Across The Hightlands Tabs
Lost And Damned Tabs
Season's End Tabs
Siege (Intro) Tabs
The Inquisitor Tabs
The Zodiac Intro Tabs
When The Lights Are Down Tabs


Song lyrics



↑ Back to top | Tablatures and chords are parodies/interpretations of the original songs. You may use it for private study, scholarship, research or language learning purposes only
© 2014 AZChords.com Contact us | Privacy policy | DMCA | Add/correct tabs | Request tabs | Top 50 tabs