>
 >
Ghost Opera

Ghost Opera Guitar Tabs

Kamelot - Ghost Opera chords, tabs, tablatures, lyrics

Guitar lessons | Add/correct | Request | Top 50 tabs Artists:  A B C D E F G H I J K L M N O P Q R S T U V W X Y Z 0-9

Ghost Opera Guitar Tabs – Kamelot

CD, Sheet music, Poster

Do you like Ghost Opera? Share with your friends now
TabsTabs v2
-------------------------------------------------------------------------------
-------------------------------------------------------------------------------

Tuning: Eb (Drop Db)  (Db Ab Db Gb Bb Eb)
Intro

Riff A 2x
    |-PM------------------------------------------------------------------------|
eb|-----------------------------------------------------------------------------|
Bb|-----------------------------------------------------------------------------|
Gb|-----------------------------------------------------------------------------|
Db|-----------------------------------------------------------------------------|
Ab|--0--7--8--0--7--8--0--5--7--0--5--7--0--3--5--0--3--5--3--2-----------------|
Db|--0--7--8--0--7--8--0--5--7--0--5--7--0--3--5--0--3--5--3--2-----------------|

Riff B
Lead Guitar
 eb|----------------------------------------------------------------------------------|
Bb|-----------------------------------------------------------------------------------|
Gb|-----------------------------------------------------------------------------------|
Db|----------------------7--6-------------7--5-----------------7----------------------|
Ab|--5-------------------------------------------------------------8-------7-------3--|
Db|-----------------------------------------------------------------------------------|
Rhythm Guitar
     |-PM--------------------------------------------------------------------|
eb|--------------------------------------------------------------------------|
Bb|--------------------------------------------------------------------------|
Gb|--------------------------------------------------------------------------|
Db|--------------------------------------------------------------------------|
Ab|--------------------------------------------------------------------------|
Db|--7--0--0--7--0--0--7--0--0--7--0--0--5--0--0--5--0--0--3--0--0--3--0--0--|

Lead Guitar
eb|-----|
Bb|-----|
Gb|-----|
Db|-----|
Ab|--5--|
Db|-----|
Rhythm Guitar
   |-PM----------------------------------------------------------------------|
eb|--------------------------------------------------------------------------|
Bb|--------------------------------------------------------------------------|
Gb|--------------------------------------------------------------------------|
Db|--------------------------------------------------------------------------|
Ab|--------------------------------------------------------------------------|
Db|--8--0--0--8--0--0--8--0--0--8--0--0--8--0--0--8--0--0--8--0--0--8--0--0--|

Riff B1
Lead Guitar
eb|-----------------------------------------------------------------------------------|
Bb|------------------11--10-------------11-------------------11-----------------------|
Gb|-------------------------------------------12--------------------10------9---------|
Db|-12----------------------------------------------------------------------------10--|
Ab|-----------------------------------------------------------------------------------|
Db|-----------------------------------------------------------------------------------|
Rhythm Guitar
     |-PM--------------------------------------------------------------------|
eb|--------------------------------------------------------------------------|
Bb|--------------------------------------------------------------------------|
Gb|--------------------------------------------------------------------------|
Db|--------------------------------------------------------------------------|
Ab|--------------------------------------------------------------------------|
Db|--7--0--0--7--0--0--7--0--0--7--0--0--5--0--0--5--0--0--3--0--0--3--0--0--|

Lead Guitar                                      Run #1 (See Below)
eb|--------------------------|
Bb|------------------11--10--|
Gb|--------------------------|
Db|--12----------------------|
Ab|--------------------------|
Db|--------------------------|
Rhythm Guitar
    |-PM-----------------------------------------------------------------------|
eb|----------------------------------------------------------------------------|
Bb|----------------------------------------------------------------------------|
Gb|----------------------------------------------------------------------------|
Db|----------------------------------------------------------------------------|
Ab|----------------------------------------------------------------------------|
Db|--8--0--0--8--0--0--8--0--0--8--0--0--8--0--0--8--0--0--8--0--0--8--10--10--|

Run #1
eb|---------------------------------------------------------------------------------|
Bb|--13-11-10-----11-10--------10---------------------------------------------------|
Gb|--------------12--------12-10----12-10-9-12-10-9-7-10-9-7----9-7-----------------|
Db|--------------------------------------------------------------------10-----10-8--|
Ab|---------------------------------------------------------------------------------|
Db|---8------0-----0-----8-----0-----0-----8-----0-----0-----8------10------10------|

Verse 1 (There are obviously two guitar parts but I tabbed them as one)
Riff C
     PM----|      |---PM-|      PM     PM----|      |---PM----------------------|    PM
eb|-----------------------------------------------------------------------------|
Bb|-----------------------------------------------------------------------------|
Gb|-----------------------------------------------------------------------------|
Db|-----------------------------------------------------------------------------|
Ab|-----------0-----------0--------1-----------0-----------0------1-------------|
Db|-0-0---0----0-0---0-----0-0-----0-0---0----0-0---0----0-0--------------------|

      PM----|      |---PM-|       PM          PM----|      |---PM------------------|
eb|--------------------------------------------------------------------------------|
Bb|--------------------------------------------------------------------------------|
Gb|--------------------------------------------------------------------------------|
Db|-----------3--------------3---------2-------------3------------2----------------|
Ab|-1-1---1-----1--1---1-----1--1-------1-1---1-----1-1---1------------------------|
Db|--------------------------------------------------------------------3--2--------|

     PM----|      |---PM-|        PM         PM----|        |---PM------------|    PM
eb|---------------------------------------------------------------------------|
Bb|---------------------------------------------------------------------------|
Gb|---------------------------------------------------------------------------|
Db|---------------------------------------------------------------------------|
Ab|-----------0-----------  0----------1--------------0-----------0--------1--|
Db|-0-00--0----0-00---0-----0-0-0-----0-00---0----0-00--0----0-0-0------------|

      PM----|         |---PM-|         PM           PM----|      |---PM-----------------|
eb|-------------------------------------------------------------------------------------|
Bb|-------------------------------------------------------------------------------------|
Gb|-------------------------------------------------------------------------------------|
Db|------------3--------------3----------2---------------3-------------2----------------|
Ab|-1-1-1--1-----1-1-1---1-----1-1--------1-1-1--1-----1-1-1--1-------------------------|
Db|-------------------------------------------------------------------------3--2--------|

PreChorus
Riff D
eb|-----------------------------------------------------------------------------|
Bb|-----------------------------------------------------------------------------|
Gb|-----------------------------------------------------------------------------|
Db|-----------------------------------------------------------------------------|
Ab|-7--------------7--------------7--------------7-8-10-------------------------|
Db|-7-77777777-7-77777777-7-77777777-7-8-10-------------------------------------|
          |---PM---|     |-----PM--|     |----PM--------------------------------|

Chorus
Rhythm Guitar Riff B 2x

Riff  E
eb|-----------------------------------------------------------------------------|
Bb|-----------------------------------------------------------------------------|
Gb|-----------------------------------------------------------------------------|
Db|-----------------------------------------------------------------------------|
Ab|-7--------------7--------------7---------------8-------10--------------------|
Db|-7-77777777-7-77777777-7-77777777--8-------10--------------------------------|
           |---PM--|      |-----PM--|   |------PM-------------------------------|
Verse 2
Riff C

Prechorus
Riff D 2x

Chorus
Rhythm Guitar Riff B 2x

Bridge
Riff E
|-PM-------------------------------------------------------------------------|
eb|--------------------------------------------------------------------------|
Bb|--------------------------------------------------------------------------|
Gb|--------------------------------------------------------------------------|
Db|--------------------------------------------------------------------------|
Ab|--0--7--8--0--7--8--0--5--7--0--5--7--0--3--5--0--3--5--0--3--2--0--3--2--|
Db|--0--7--8--0--7--8--0--5--7--0--5--7--0--3--5--0--3--5--0--3--2--0--3--2--|

PreSolo
Riff F 2x
eb|---------------------------------------------------------------------------------------------|
Bb|---------------------------------------------------------------------------------------------|
Gb|---------------------------------------------------------------------------------------------|
Db|---------------------------------------------------------------------------------------------|
Ab|---------------------------------------------------------------------------------------------|
Db|--7-0-0-7-0-0-/12--0--7-0-0--7-0-0-/12---0--8-0-0-8-0-0-12--0--14-0-0-12-0-0-10--8-----------|
        |----PM----|               |-------PM------|          |------PM----|                PM--|      PM

Solo
Riff F 2x
eb|----------------------------------------10-12-13-12-13-15-13-15-17---/17---h18p17p15-17--|
Bb|--10h11p10-----10-----10-11-13-----------------------------------------------------------|
Gb|--------------12-------------------------------------------------------------------------|
Db|-----------------------------------------------------------------------------------------|
Ab|-----------------------------------------------------------------------------------------|
Db|-----------------------------------------------------------------------------------------|

eb|--15-13-1213p12-------10------------------------------------------------------------------|
Bb|-------------------------/15-----13p11p10--------------------------------------------------|
Gb|-----------------------------------------------12p9h10h12p10p9---------10p9----------------|
Db|----------------------------------------------------------------------12p10--------10p9p7--|
Ab|-------------------------------------------------------------------------------------------|
Db|-------------------------------------------------------------------------------------------|

eb|------------------------------------------------------------------------------13------17---13-----|
Bb|---------------------------------------------------------15----------------------15-----------15--|
Gb|--------------------------------------------------14----------14-------14-------------------------|
Db|----------------------7------------------------------15-----------15------------------------------|
Ab|----10p8p7h8h10-------8-----5------/17-17---------------------------------------------------------|
Db|--------------------------------------------------------------------------------------------------|

eb|----15--h17p15/12h13--------13----12------------------------------------------------------------------|
Bb|-----------------------------10-----10------13--15-13-11----------------------------------------------|
Gb|---------------------------------------------------------------14-12-10-------------------------------|
Db|---------------------------------------------------------------------------12-10-8-10-8-7-------------|
Ab|----------------------------------------------------------------------------------------------10-8-7--|
Db|------------------------------------------------------------------------------------------------------|

Prechorus
Riff D 2x

Chorus
Rhythm Guitar Riff B 2x
Rhythm and Lead Riff B1 (w/ Run #1)

Outro
Riff A 2x

Key

p=pull off
h= hammer on
/=slide to note
PM = palm mute





Comments


Popular Kamelot tabs & chords
On The Coldest Winter Night Bass Tabs
Anthem Chords
Love You To Death Chords
Karma Tabs
Karma 1 Tabs
Lost And Damned Tabs
March Of Mephisto Tabs
Siege Intro 1 Tabs
A Sailormans Hymn Ukulele
Abandoned Ukulele


Song lyrics



↑ Back to top | Tablatures and chords are parodies/interpretations of the original songs. You may use it for private study, scholarship, research or language learning purposes only
© 2014 AZChords.com Contact us | Privacy policy | DMCA | Add/correct tabs | Request tabs | Top 50 tabs