>
 >
Black Halo

Black Halo Bass Tabs

Kamelot - Black Halo chords, tabs, tablatures, lyrics

Guitar lessons | Add/correct | Request | Top 50 tabs Artists:  A B C D E F G H I J K L M N O P Q R S T U V W X Y Z 0-9

Black Halo Bass Tabs – Kamelot

CD, Sheet music, Poster

Do you like Black Halo? Share with your friends now
Bass TabsTabs
Kamelot - Black halo

Riff 1 2X
Gb|------------------------------------------------------------|
Db|------------------------------------------------------------|
Ab|--------------------------------------------------------2H4-|
Eb|-222--222--222--222--222--222--222--222--222--222--222------|

Riff 2 2X
Gb|-----------------|-----------------|-----------------|---------|
Db|-----------------|-----------------|-----------------|-----3-5-|
Ab|-------4---------|-------4---------|-------4---------|-4-5-----|
Eb|-2-4-5---2-4-5-5-|-2-4-5---2-4-5-5-|-2-4-5---2-4-5-5-|---------|

Riff 3 5X
Gb|----------------------------|
Db|----------------------------|
Ab|----------------------------|
Eb|-2--2--2--2--2--2--2--2--2--|

Riff 4 2X
Gb|---------------------------------------------------------------|
Db|---------------------------------------------------------------|
Ab|---------------------------------2--2---222--2----0--0--000--0-|
Eb|-2--2--222--2----2--2--222--2----------------------------------|

Riff 5 2X
Gb|----------------------------------|
Db|----------------------------------|
Ab|-------------------------------2--|
Eb|-222--222--222--222--222--222-----|

Riff 6 1X
Gb|-----------------|-----------------|-----------------|-----------------|
Db|-----------------|-----------------|-----------------|-----------------|
Ab|-----------------|-2-2-2-2-2-2-2-2-|-8-8-8-8-8-8-8-8-|-7-7-7-7-7-7-7-7-|
Eb|-3-3-3-3-3-3-3-3-|-----------------|-----------------|-----------------|

Gb|-----------------|-----------------|-------------------------|
Db|-----------------|-----------------|-------------------------|
Ab|-----------------|-2-2-2-2-2-2-2-2-|-10-10-10-10-10-10-10-10-|
Eb|-3-3-3-3-3-3-3-3-|-----------------|-------------------------|

Gb|-----------------|
Db|-----------------|
Ab|-9-9-9-9-9-9-9-9-|
Eb|-----------------|

Riff 3 (1,5X)
Riff 4 (2X)
Riff 5 (2X)
Riff 6 (2X)

Orchestra Part

Solo = Riff 1 (2X)
Riff 6 (2X)
Riff 1 (1X)





Comments


Popular Kamelot tabs & chords
March Of Mephisto Bass Tabs
Don't You Cry Chords
Elizabeth Imirror Mirror Intro Tabs
Forever Intro 1 Tabs
Ghost Opera 1 Tabs
Karma 1 Tabs
Soul Society Tabs
When The Lights Are Down 1 Tabs
On The Coldest Winter Night Ukulele
The Haunting Ukulele


Song lyrics



↑ Back to top | Tablatures and chords are parodies/interpretations of the original songs. You may use it for private study, scholarship, research or language learning purposes only
© 2014 AZChords.com Contact us | Privacy policy | DMCA | Add/correct tabs | Request tabs | Top 50 tabs