>
 >
Black Halo

Black Halo Guitar Tabs

Kamelot - Black Halo chords, tabs, tablatures, lyrics

Guitar lessons | Add/correct | Request | Top 50 tabs Artists:  A B C D E F G H I J K L M N O P Q R S T U V W X Y Z 0-9

Black Halo Guitar Tabs – Kamelot

CD, Sheet music, Poster

Do you like Black Halo? Share with your friends now
Bass TabsTabs
Kamelot
Track number 10 from Black Halo (2005)
Tunning: 1/2 step down (EbAbDbGbBbeb)
Tune: the song is on F#m, and the riff are in the F# minor scale

INTRO
eb|-------------------------------------------|
Bb|-------------------------------------------|
Gb|-------------------------------------------|
Db|-------------------------------------------|
Ab|------5-------5------------4------4--------|
Eb|--222-----222----222v--222----222----222v--|

eb|---------------------------------------------------------|
Bb|---------------------------------------------------------|
Gb|-------------------------------------   pretty  fast   --|
Db|---------------------------------------------------------|
Ab|------5-------5------------4------4-----2h4-5p4-2h4p2----|
Eb|--222-----222----222v--222----222----2-2--------------2--|

eb|-------------------------------------------|
Bb|-------------------------------------------|
Gb|-------------------------------------------|
Db|-------------------------------------------|
Ab|------5-------5------------4------4--------|
Eb|--222-----222----222v--222----222----222v--|

eb|---------------------------------------------------------|
Bb|---------------------------------------------------------|
Gb|-------------------------------------   pretty  fast   --|
Db|---------------------------------------------------------|
Ab|------5-------5------------4------4-----2h4-5p4-2h4p2----|
Eb|--222-----222----222v--222----222----2-2--------------2--|


Pre-verse Riff
eb|-------------------------------------------|
Bb|-------------------------------------------|
Gb|-------------------------------------------|
Db|-------------------------------------------|
Ab|------(4)--------4--------4h5p4-2-2h4p2----|
Eb|--(222)----2-4-5----2-4-5---------------5--|

last time paly this
eb|-----------------------------|
Bb|-----------------------------|
Gb|-----------------------------|
Db|-----------------------------|
Ab|--454--575--797--9109/14...--|
Eb|-----------------------------|


Verse 1
     F#5 (let ring)
eb|-------------------------------------------------|
Bb|-------------------------------------------------|
Gb|-------------------------------------------------|
Db|--4--------------------------------(4)--(4)-(4)--|
Ab|--5................../4.......\5---(4)--(4)-(4)--|
Eb|--2--------------------------------(2)-----------|
    Come wind, come ... land ... I have .... death 


    F#5 (let ring)
eb|-------------------------------------------------|
Bb|-------------------------------------------------|
Gb|-------------------------------------------------|
Db|--4--------------------------------(4)--(4)-(4)--|
Ab|--5................../4.......\5---(4)--(4)-(4)--|
Eb|--2--------------------------------(2)-----------|
     Come will to ..... hand...so I can ..... prayer 


eb|----------------------------------------------------------------|
Bb|----------------------------------------------------------------|
Gb|--------------------------------------2-2-------2-----4---------|
Db|--4---4---------4-----4--4--------4---2-2-------2-----4------4--|
Ab|--5---5---------5-----4--4--------4---0-0--000--0-----2-222--2--|
Eb|--2---2----222--2-----2--2---222--2-----------------------------|
    You could take me   higher, so you   said I trusted  you
 
eb|----------------------------------------------------------------|
Bb|----------------------------------------------------------------|
Gb|--------------------------------------4-4-------4-----2---------|
Db|--4---4---------4-----4--4--------4---4-4-------4-----2------2--|
Ab|--5---5---------5-----4--4--------4---2-2--222--2-----0-000--0--|
Eb|--2---2----222--2-----2--2---222--2-----------------------------|
     I  may   be   a    li..ar,...but be-yal Lies on    you 


Pre-chorus
eb|---------------------------------------------------|
Bb|----------------------------------------only for --|
Gb|----------------------------------------2nd--time--| x2
Db|-------------------------------------------P.H-----|
Ab|------5-------5------------4------4--------*2*-----|
Eb|--222-----222----222v--222----222----222v----------|
     I can feel   where   the   journey ends 
     Final  cup  for   the   last    defence 


Chorus (hear carefully to catch the sturmming)
eb|---------------------------------------------------------------------------------|
Bb|---------------------------------------------------------------------------------|
Gb|-------------------4-----------------------10---------------9--------------------|
Db|--5----------------4-----------------------10---------------9-------------------|
Ab|--5----------------2-----------------------8----------------7--------------------|
Eb|--3---------------------------------------------------------0--------------------|
    Darkness, come tonight,(Darkness, come tonight), I have no fear of what you hold 

eb|--------------------------------------------------------------------------------------|
Bb|--------------------------------------------------------------------------------------|
Gb|-------------------4-------------------------12------------------11-------------------|
Db|--5----------------4-------------------------12------------------12-------------------|
Ab|--5----------------2-------------------------10------------------9--------------------|
Eb|--3-----------------------------------------------------------------------------------|
    Darkness, cut the light,(Darkness, cut the light), You are the stories I've been told 


Verse 2
eb|----------------------------------------------------------------|
Bb|----------------------------------------------------------------|
Gb|--------------------------------------2-2-------2-----4---------|
Db|--4---4---------4-----4--4--------4---2-2-------2-----4------4--|
Ab|--5---5---------5-----4--4--------4---0-0--000--0-----2-222--2--|
Eb|--2---2----222--2-----2--2---222--2-----------------------------|
     I possess the      power, A       survivor in the  cold 
 
eb|----------------------------------------------------------------|
Bb|----------------------------------------------------------------|
Gb|--------------------------------------4-4-------4-----2---------|
Db|--4---4---------4-----4--4--------4---4-4-------4-----2------2--|
Ab|--5---5---------5-----4--4--------4---2-2--222--2-----0-000--0--|
Eb|--2---2----222--2-----2--2---222--2-----------------------------|
     Life  is like a     flower, As I   stumble shadows fall 


Pre-chorus
eb|---------------------------------------------------|
Bb|----------------------------------------only for --|
Gb|----------------------------------------2nd--time--| x2
Db|-------------------------------------------P.H-----|
Ab|------5-------5------------4------4--------*2*-----|
Eb|--222-----222----222v--222----222----222v----------|
     We  all  know  when  the  time  has  come 
     This  is  where  I will  linger  o........n


Chorus (hear carefully to catch the sturmming)
eb|---------------------------------------------------------------------------------|
Bb|---------------------------------------------------------------------------------|
Gb|-------------------4-----------------------10---------------9--------------------|
Db|--5----------------4-----------------------10---------------9-------------------|
Ab|--5----------------2-----------------------8----------------7--------------------|
Eb|--3---------------------------------------------------------0--------------------|
    Darkness, come tonight,(Darkness, come tonight), I have no fear of what you hold 

eb|--------------------------------------------------------------------------------------|
Bb|--------------------------------------------------------------------------------------|
Gb|-------------------4-------------------------12------------------11-------------------|
Db|--5----------------4-------------------------12------------------12-------------------|
Ab|--5----------------2-------------------------10------------------9--------------------|
Eb|--3-----------------------------------------------------------------------------------|
    Darkness, cut the light,(Darkness, cut the light), You are the stories I've been told 

eb|---------------------------------------------------------------------------------|
Bb|---------------------------------------------------------------------------------|
Gb|-------------------4-----------------------10---------------9--------------------|
Db|--5----------------4-----------------------10---------------19-------------------|
Ab|--5----------------2-----------------------8----------------7--------------------|
Eb|--3---------------------------------------------------------0--------------------|
    Darkness, come tonight,(Darkness, come tonight), Nothing can take my faith away 

eb|--------------------------------------------------------------------------------------|
Bb|--------------------------------------------------------------------------------------|
Gb|-------------------4-------------------------12------------------11-------------------|
Db|--5----------------4-------------------------12------------------12-------------------|
Ab|--5----------------2-------------------------10------------------9--------------------|
Eb|--3-----------------------------------------------------------------------------------|
    Darkness, cut the light,(Darkness, cut the light), Life fades to black from silver grey


Pre-solo (vocals & orchesta arrenge for guitar)
eb|-------------|-------------|    eb|-------------|---------|
Bb|-------------|-------------|    Bb|-------------|---------|
Gb|--4-6-7-4-6--|--4-6-9-4-6--| x2 Gb|--4-6-7-4-6--|--4-5-6--|
Db|-------------|-------------|    Db|-------------|---------|
Ab|--2-4-5-2-4--|--2-4-7-2-4--|    Ab|--2-4-5-2-4--|--2-2-4--|
Eb|-------------|-------------|    Eb|-------------|---------|


Solo (i couldnt get the solo, but im going to give you its two main scale)(that will do just play over 
these and youll get to something or at least i did)

eb|-----------------------------------------14-16-17--|
Bb|----------------------------------14-15------------|
Gb|---------------------------14-17-------------------|
Db|---------------------14-17-------------------------|
Ab|------------14-16-17-------------------------------|
Eb|--14-16-17-----------------------------------------|
and
eb|------------------------------------------------14-16-17--|
Bb|---------------------------------------14-15-17-----------|
Gb|------------------------------14-16-18--------------------|
Db|---------------------14-16-18-----------------------------|
Ab|------------14-16-17--------------------------------------|
Eb|--14-16-17------------------------------------------------|


Chorus (hear carefully to catch the sturmming)
eb|---------------------------------------------------------------------------------|
Bb|---------------------------------------------------------------------------------|
Gb|-------------------4-----------------------10---------------9--------------------|
Db|--5----------------4-----------------------10---------------9-------------------|
Ab|--5----------------2-----------------------8----------------7--------------------|
Eb|--3---------------------------------------------------------0--------------------|
    Darkness, come tonight,(Darkness, come tonight), I have no fear of what you hold 

eb|--------------------------------------------------------------------------------------|
Bb|--------------------------------------------------------------------------------------|
Gb|-------------------4-------------------------12------------------11-------------------|
Db|--5----------------4-------------------------12------------------12-------------------|
Ab|--5----------------2-------------------------10------------------9--------------------|
Eb|--3-----------------------------------------------------------------------------------|
    Darkness, cut the light,(Darkness, cut the light), You are the stories I've been told 

eb|---------------------------------------------------------------------------------|
Bb|---------------------------------------------------------------------------------|
Gb|-------------------4-----------------------10---------------9--------------------|
Db|--5----------------4-----------------------10---------------8-------------------|
Ab|--5----------------2-----------------------8----------------7--------------------|
Eb|--3---------------------------------------------------------0--------------------|
    Darkness, come tonight,(Darkness, come tonight), Nothing can take my faith away 

eb|--------------------------------------------------------------------------------------|
Bb|--------------------------------------------------------------------------------------|
Gb|-------------------4-------------------------12------------------11-------------------|
Db|--5----------------4-------------------------12------------------12-------------------|
Ab|--5----------------2-------------------------10------------------9--------------------|
Eb|--3-----------------------------------------------------------------------------------|
    Darkness, cut the light,(Darkness, cut the light), Life fades to black from silver grey


Outro
eb|-------------------------------------------|
Bb|-------------------------------------------|
Gb|-------------------------------------------|
Db|-------------------------------------------|
Ab|------5-------5------------4------4--------|
Eb|--222-----222----222v--222----222----222v--|

eb|---------------------------------------------------------|
Bb|---------------------------------------------------------|
Gb|-------------------------------------   pretty  fast   --|
Db|---------------------------------------------------------|
Ab|------5-------5------------4------4-----2h4-5p4-2h4p2-2--|
Eb|--222-----222----222v--222----222----2-2-----------------|





Comments


Popular Kamelot tabs & chords
A Sailorman's Hymn Bass Tabs
A Sailormans Hymn Chords
Center Of The Universe Chords
The Haunting Chords
Edge Of Paradise Tabs
Forever 1 Tabs
Ghost Opera Tabs
Love You To Death Tabs
Rule The World Intro Tabs
Soul Society Tabs


Song lyrics



↑ Back to top | Tablatures and chords are parodies/interpretations of the original songs. You may use it for private study, scholarship, research or language learning purposes only
© 2014 AZChords.com Contact us | Privacy policy | DMCA | Add/correct tabs | Request tabs | Top 50 tabs