>
 >
Hades

Hades Guitar Tabs

Kalmah - Hades chords, tabs, tablatures, lyrics

Guitar lessons | Add/correct | Request | Top 50 tabs Artists:  A B C D E F G H I J K L M N O P Q R S T U V W X Y Z 0-9

Hades Guitar Tabs – Kalmah

CD, Sheet music, Poster

Do you like Hades? Share with your friends now
Tabs
tune down a 1/2 step (Eb Ab Db Gb Bb eb)

Intro:                                                                    2x
|---------------------------------------------------------------------------|
|---------------------------------------------------------------------------|
|------------------------------------------------------AH-------------------|
|-9-9p7-7-7h9-9-9p7/5-5-5h7-7-7-5-4-5~-5-5/9-9-9/5-5-5h7b--5-5h7-7-7-5-4----|
|------------------------------------------------------------------------7~-|
|---------------------------------------------------------------------------|
|                                                                           |
|---------------------------------------------------------------------------|
|---------------------------------------------------------------------------|
|-----------------------------------------------------------777777777777----|
|-2------------2-2-----------------------------2------------777777777777-2--|
|-2------------2-2-----------------------------2------------555555555555-2--|
|-0------------0-0-----------------------------0-------------------------0--|

Riff 1:
|-----------------------------------------------------------------------AH---|
|12-12p10-10-10h12-12-12p10\8-8-8h10-10-10-8-7-8~-8-8/12-12-12/8-8-8h10-10-8-|
|----------------------------------------------------------------------------|
|----------------------------------------------------------------------------|
|----------------------------------------------------------------------------|
|----------------------------------------------------------------------------|
|
|----------------------------------------------------------------------------|
|----------------------------------------------------------------------------|
|9-----------9-----------9---------------------5-----------5-----------7-----|
|9-----------9-----------9---------------------5-----------5-----------7-----|
|7-7-7-7-7-7-7-7-7-7-7-7-7-7-7-7-7-7---7---7\--3-3-3-3-3-3-3-3-3-3-3-3-5-5-5-|
|------------------------------------8---8-----------------------------------|
                                     . . .
  -----------------|
  8h10-10-10p8p7---|
  ---------------9~|
  -----------------|
  -----------------|
  -----------------|
                   |
  -----------------|
  -----------------|
  ------4---4/--5--|
  ------4---4/--5--|
  5-5-5-2-2-2/--3--|
  -----------------|

Intro 2:
|---------------------------------------------------------------------------|
|---------------------------------------------------------------------------|
|---------------------------------------------------------------------------|
|--2-------2-------2-------------2------2-----------------------------------|
|--2-------2-------2-------------2------2-----------------------------------|
|--0-------0-------0-------------0------0-----------------------------------|
|
|---------------------------------------------------------------------------|
|---------------------------------------------------------------------------|
|---------------------------------------------------------------------------|
|---------------------------------------------------------------------------|
|---------------------------------------------------------------------------|
|---------------------------------------------------------------------------|

--------------------------------------------------------------------------|
--------------------------------------------------------------------------|
---------------------------------------------9----5---4-------9----5---4--|
---------------------------------------------9----5---4-------9----5---4--|
---------------------------------------------7----3---2-------7----3---2--|
--------------------------------------------------------------------------|
  Welcome to Hades...                   my Hades...


Riff 2: (2 gtrs)
|----------------------------------------------------|
|----------------------------------------------------|
|----------------------------------------------------|
|----------------------------------------------------|
|-777777777777777777777777---------------------------|
|--------------------------888888888888-777777777777-|
  ........................ ............ ............


Riff 3:
|------------------------------------------------------------------------------|
|8-8p7-7-7h8-8-8p7-5-8-8p7-7-7h8-8-8~-10-10p8-8-8h10-10-10p8-7-10-10p8-8/10-12-|
|------------------------------------------------------------------------------|
|------------------------------------------------------------------------------|
|------------------------------------------------------------------------------|
|------------------------------------------------------------------------------|
|
|-------------------------------------------------------------------------------|
|-------------------------------------------------------------------------------|
|-------------------------------------------------------------------------------|
|-------------------------------------------7p5-5h7-5-7-?-?-?-----------5/7-9-7-|
|-9p7--7h9--7h9p7----9p7--7h9--7h9p7--------------------------------------------|
|-------------------------------------------------------------------------------|

  -----------|
  -10--------|
  ---12-11-9-|
  -----------|
  -----------|
  -----------|
             |
  -----------|
  -----------|
  -----------|
  -----------|
  --10-9-7---|
  -----------|


Riff 4:                          2x
|----------------------------------|----------------|
|----------------------------------|----------------|
|--9-------------------------------|----------------|
|--9-------9-------5-------4-------|----------------|
|--7--777--7--777--3--333--2--222--|-5-------4------|
|----------------------------------|-3--333--2--222-|
      ...     ...     ...     ...       ...     ...


Riff 5:                           1st time:    2nd time:
|--------------------------------|-----------|-----------|
|-8-00-7-00-8-00-10-00-8-00-7-00-|-5-00-4-00-|-4-4-4-5/8-|
|--------------------------------|-----------|-----------|
|--------------------------------|-----------|-----------|
|--------------------------------|-----------|-----------|
|--------------------------------|-----------|-----------|


Fill 1:
|--------------------------------------|
|--------------------------------------|
|--7h9p7---7---------------------------|
|--------9---10-9--7h9p7---7-----------|
|------------------------9---10-9-7b\--|
|--------------------------------------|


Fill 2:
|------------------------------|
|------------------------------|
|------------------------------|
|----9-9\7--7-7/9--9-9\5-5-----|
|----7-7\5--5-5/7--7-7\3-3-----|
|------------------------------|


Solo 1: (clean)
|-----------------------------------------------------------------15-14-12-|
|--------------------------------------------------------------------------|
|--------------------------------------------------------------------------|
|-9~--5--7--4--4-5--7--7-5-4------------10-9~-10-10h12-10-7-7h9~-----------|
|-----------------7----------5h7~--7-10------------------------------------|
|--------------------------------------------------------------------------|
|
|-------------------------------------------------------------------------|
|-------------------------------------------------------------------------|
|-------------------------------------------------------------------------|
|------9---------9---------5--7--5---------9---------9----------5--7--5---|
|-7---------7---------7---------------7---------7---------7---------------|
|-------------------------------------------------------------------------|

----------------------------------------------------------------------|
-15-13-12-------------------------------------------------------------|
----------14-12-11-----------------------------------------9-11-12-9~-|
-------------------14-12-10-9~-10p9-7--------------9-10-12------------|
---------------------------------------7-7-9-10-12--------------------|
----------------------------------------------------------------------|
                                                                      |
----------------------------------------------------------------------|
----------------------------------------------------------------------|
----------------------------------------------------------------------|
------9---------9--------5--7--5---------9--------9----------5--7--5--|
-7---------7--------7---------------7--------7---------7--------------|
----------------------------------------------------------------------|


Solo 2: yep...still working on it ;)
-------------------------------------------------------------------------|
-------------------------------------------------------------------------|
-------------------------------------------------------------------------|
-------------------------------------------------------------------------|
-------------------------------------------------------------------------|
-------------------------------------------------------------------------|

-------------------------------------------------------------------------|
---17-17---19-20-19-20-19-17----17---------------------------------------|
-----------------------------19------------------------------------------|
-------------------------------------------------------------------------|
-------------------------------------------------------------------------|
-------------------------------------------------------------------------|

-------------------------------------------------------------------------|
----20p19p17/15--15h17p15------------------------------------------------|
-------------------------------------------------------------------------|
-------------------------------------------------------------------------|
-------------------------------------------------------------------------|
-------------------------------------------------------------------------|

--------------------------------------------------------------------------|
--------------------------------------------------------------------------|
---12-12h14p12-11------12-14-12-12p11--12-14-12--11-12-16--12-14-12-11----|
------------------14\-----------------------------------------------------|
--------------------------------------------------------------------------|
--------------------------------------------------------------------------|
                       .   .  .  .  .                       .  .  .  .

----------17-------------------------------------------------------------|
-14-17-17----------------------------------------------------------------|
-------------------------------------------------------------------------|
-------------------------------------------------------------------------|
-------------------------------------------------------------------------|
-------------------------------------------------------------------------|

-------------------------------------------------------------------------|
----------------------------12-13-15--17-00-15-00-13-00-12-00-10-00-8-00-|
-------------------12-14-15----------------------------------------------|
----------12-14-15-------------------------------------------------------|
-12-14-15----------------------------------------------------------------|
-------------------------------------------------------------------------|

------------|
-7-00-5\----|
------------|
------------|
------------|
------------|





Comments


Popular Kalmah tabs & chords
Bitter Metallic Side Tabs
Defeat Tabs
Hallow Heart Intro Tabs
Heroes To Us Tabs
Heroes To Us Intro Tabs
My Nation Intro Tabs
Svieri Doroga Tabs
Swamphell Tabs
Third The Magical Tabs
Withering Away Tabs


Song lyrics



↑ Back to top | Tablatures and chords are parodies/interpretations of the original songs. You may use it for private study, scholarship, research or language learning purposes only
© 2014 AZChords.com Contact us | Privacy policy | DMCA | Add/correct tabs | Request tabs | Top 50 tabs