» » »

Kaki King, Ritual Dance Tabs (ver.3)

Artists:  A B C D E F G H I J K L M N O P Q R S T U V W X Y Z # 

Ritual Dance Tabs (ver.3)

Kaki King Tabs
Rating:
4/5 (4 votes)
Ritual Dance lessons Tabs too difficult? Try these video lessons and learn fast
                Ritual Dance - Kaki King


This is from the movie "August Rush".  If you have any questions or comments that
are relevant to this tab, do not hesitate to E-mail me with them.  The legend is
at the bottom of the tab.

Tuning: DADGCC
How to tune it from standard:
e tune down two whole steps to get C
B tune up one whole step to get a  C
G leave it alone
D leave it alone
A laeve it alone
D tune down one whole step to get D


                       !                    !
C -|--5*------------------7*--------------------|
C -|--5*------------------7*--------------------|
G -|--5*------------------7*-------------55-----|
D -|--5*-000h333/55555000-7*-000h3333/55555000--|
A -|--5*-000h333/55555000-7*-000h3333/55555000--|
D -|--5*-00h3333/55555000-7*-000h3333/55555000--|

                       !
C -|--5*------------------7*------------------|
C -|--5*------------------7*------------------|
G -|--5*------------55----7*------------------|
D -|--5*-000h333/55555000-7*-000h3333/555550--|
A -|--5*-000h333/55555000-7*-000h3333/555550--|
D -|--5*-00h3333/55555000-7*-000h3333/555550--|

C -|--222/55/77-000-000000-----|
C -|--222/55/77-000-000000-----|
G -|--222/55/77-002p0-0000-----|
D -|--000000000-333-3/5555000--|
A -|--000000000-333-3/5555000--|
D -|------------333-3/5555000--|===PLAY 2 TIMES

C -|--999/12-00-4-4444000-000000-0-0-----------|
C -|--999/12-00-4-4444000-000000-0-2-----------|
G -|--999/12-00-2-2222007-777700-2-2-----------|
D -|--000000000-2-2222008-888800-----00000000--|
A -|------------0-0000--8-8888-------00000000--|
D -|------------3-3333--8-8888-------00000000--|

C -|--222/55/77-000-000000-----|
C -|--222/55/77-000-000000-----|
G -|--222/55/77-002p0-0000-----|
D -|--000000000-333-3/5555000--|
A -|--000000000-333-3/5555000--|
D -|------------333-3/5555000--|===PLAY 2 TIMES

C -|--999/12-00-4-4444000-000000-0-0-----------|
C -|--999/12-00-4-4444000-000000-0-2-----------|
G -|--999/12-00-2-2222007-777700-2-2-----------|
D -|--000000000-2-2222008-888800-----00000000--|
A -|------------0-0000--8-8888-------00000000--|
D -|------------3-3333--8-8888-------00000000--|

                !       !
C -|--5420-00000-0-00000-000000-----|
C -|--5420-00000-0-00000-022222-----|
G -|--7520-222p0-0-222p0-2222p0-----|
D -|--0000-33333-3-33333-000000000--|
A -|--0000-33333-3-33333-------000--|
D -|-------33333-3-33333-------000--|

C -|--5420-00000-0-00000-0------2----------|
C -|--5420-00000-0-00000-0------2----------|
G -|--7520-222p0-0-222p0-2---2/50----------|
D -|--0000-33333-3-33333-0000000000000000--|
A -|--0000-33333-3-33333--000000000000000--|
D -|-------33333-3-33333--000000000000000--|

C -|-----------0--------------0---0---00---00-0-----777777777--|
C -|-----------0--------------0---0---00---00-0-----777777777--|
G -|----00--000x-4-0---00--000x-4-x---00---00-x-4-0-777777777--|
D -|--111/333/555555-111/333/555555-111/333/5555555-777777777--|
A -|--111/333/555555-111/333/555555-111/333/5555555-777777777--|
D -|--111/333/555555-111/333/555555-111/333/5555555------------|


(tapping part)

                                   !
C -|--0h2p0h5p0h7p0------------------|
C -|--0h2p0h5p0h7p0------------------|
G -|--0h2p0h5p0h7p0------------------|
D -|--------------------7p0-----5p0--|
A -|------------------3-------5------|
D -|----------------3-------5--------|===PLAY 2 TIMES

C -|--0h9p0h12p0-4-44444--54202-----------|
C -|--0h9p0h12p0-4-44444--54202-----------|
G -|--0h9p0h12p0-2-22222--32202-----------|
D -|-------------2-22222--32000-00000000--|
A -|-------------0-00000--00000-00000000--|
D -|-------------3-33333--43----00000000--|

                                   !
C -|--0h2p0h5p0h7p0------------------|
C -|--0h2p0h5p0h7p0------------------|
G -|--0h2p0h5p0h7p0------------------|
D -|--------------------7p0-----5p0--|
A -|------------------3-------5------|
D -|----------------3-------5--------|===PLAY 2 TIMES

C -|--0h9p0h12p0-4-44444---5791214-----------|
C -|--0h9p0h12p0-4-44444---5791214-----------|
G -|--0h9p0h12p0-2-22222---3571214-----------|
D -|-------------2-22222---357-0---00000000--|
A -|-------------0-00000---000-0---00000000--|
D -|-------------3-33333---468-----00000000--|


(Watch the hammer-ons and pull-offs very closely)

C -|--5420--------------------------------------12*------7*-----------------|
C -|--5420--------------------------------------12*------7*-----------------|
G -|--3220h2p0h2p0h2p0h2p0h2p0h2p0h2p0h2p0h2p0h2p0h2p0h2p0h2p7h2p0h2p0h2p0--|
D -|--3200h2p0h2p0h2p0h2p0h2p0h2p0h2p0h2p0h2p0h2p0h2p0h2p0h2p0h2p7h2p2h2p0--|
A -|--000--3-------------3---3-----------0----------------------------------|
D -|--43---3-------------3---3-----------0----------------------------------|

C -|---------------------------------------12*12*---7*7*---------------|
C -|---------------------------------------12*12*---7*7*---------------|
G -|--2p0h2p0h2p0h2p0h2p0h2p0h2p0h2p0h2p0h2p0h2p0h2p0h2p0h2p0h2p0h2p0--|
D -|--2p0h2p0h2p0h2p0h2p0h2p0h2p0h2p0h2p0h2p0h2p0h2p0h2p0h2p0h2p0h2p0--|
A -|--3-------------3---5-----------0----------------------------------|
D -|--3-------------3---5-----------0----------------------------------|

(Perform this by hammering on the "bass notes", slapping the harmonics,
and strumming the [-00000].  Increase speed as you go)
          
          !                !                ! 
C|-----12*-12*-7*-12*-----0-12*-7*-12*-----0-12*-7*-12*------12*-------12*--|
C|-----12*-12*-7*-12*-----0-12*-7*-12*-----0-12*-7*-12*------12*12*------12*|
G|------------------------0----------------0---------------------12*--------|
D|------------------------0----------------0--------------------------------|
A|--3p0-----------------5-0--------------7-0--------------12----------12----|
D|--3p0---------------5----------------7----------------12----------12------|

          !                !                !
C|-----12*-12*-7*-12*-----0-12*-7*-12*-----0-12*-7*-12*------12*-------12*--|
C|-----12*-12*-7*-12*-----0-12*-7*-12*-----0-12*-7*-12*------12*12*------12*|
G|------------------------0----------------0---------------------12*--------|
D|------------------------0----------------0--------------------------------|
A|--3p0-----------------5-0--------------7-0--------------12----------12----|
D|--3p0---------------5----------------7----------------12----------12------|

          !               !                !
C|-----12*-12*-7*-12*----0-12*-7*-12*-----0-12*-7*-12*------12*--------12*--|
C|-----12*-12*-7*-12*----0-12*-7*-12*-----0-12*-7*-12*------12*12*-----12*12|
G|-----------------------0----------------0--------------------12*--------12|
D|-----------------------0----------------0---------------------------------|
A|--3p0----------------5-0--------------7-0---------------12---------12-----|
D|--3p0---------------5----------------7----------------12---------12-------|

C -|------|
C -|------|
G -|--0---|
D -|--00--|
A -|--00--|
D -|--00--|

LEGEND:
* = harmonics
/ = slide up
h = hammer on
p = pull off
x = mute
! = percussive slap on the guitar
            
Submit corrections

comments powered by Disqus
↑ Back to top | Kaki King Tabs for Ritual Dance. Lyrics for acoustic guitar and electric guitar. Tablatures and chords are parodies/interpretations of the original songs. You may use it for private study, scholarship, research or language learning purposes only