» » »

Delikatessen Tabs (ver.1)

Artists:  A B C D E F G H I J K L M N O P Q R S T U V W X Y Z # 

Delikatessen Tabs (ver.1)

Kaizers Orchestra
Rating:
4/5 (5 votes)

Hard to play? Try these video lessons and learn fast.
                (Intro)
e|------------------------------------------------------------|
B|------------------------------------------------------------|
G|----------------------------------7-7-----------------------|
D|-9--------9-8-9-8-9-8-----------9-----10-9------------------|
A|---10-9-7-------------10-9-7-10------------10-9-7-6-7-9-----|
E|--------------------------------------------------------8-7-|

e|----------------------------------------------------------|
B|----------------------------------------------------------|
G|----------------------------------------------------------|
D|-9-10-10-9---------9-10-10-9-----6-7-10-9-7-5-4-2---------|
A|---------------6-7-----------7-9------------------6-7-9---|
E|-----------7-9------------------------------------------7-|
            
Hard to play? Try these video lessons and learn fast. | Correct




comments powered by Disqus
↑ Back to top | Tablatures and chords are parodies/interpretations of the original songs. You may use it for private study, scholarship, research or language learning purposes only