» » »

Kaizers Orchestra, Dd Manns Tango Tabs (ver.2)

Artists:  A B C D E F G H I J K L M N O P Q R S T U V W X Y Z # 

Dd Manns Tango Tabs (ver.2)

Kaizers Orchestra Tabs
 Rating:
4/5 (4 votes)
Dd Manns Tango lessons Tabs too difficult? Try these video lessons and learn fast
                Intro:

e|------------------------------------------------|
B|------------------------------------------------|
G|------------------------------------------------|
D|------------------------------------------------|
A|---------2-2--------2-5-2----------2-2----------|
E|---0-3-5-----5-3--5-------3-5-3--5-----5-33-0-5-|

e|------------------------------------------------|
B|------------------------------------------------|
G|------------------------------------------------|
D|------------------------------------------------|
A|---------2-2--------2-5-2----------2-2----------|
E|---0-3-5-----5-3--5-------3-5-3--5-----5-33-0-5-|


e|---------------------|
B|---------------------|
G|---------------------|
D|---------------------|
A|---------2-2---------|
E|---0-3-5-----5-3-5-0-|

       Em     C         Em         C
Det er kald november på grenså til desember
   Em       C                   Em     C
Eg ser ingenting, mitt blikk er blindt
       Em           C      Em            C
Eg har sendt min posisjon. Her er min konklusjon
   Em           C              Em      C
Eg stoler ikkje lenger på mitt instinkt
   Em           C              Em      C
Eg stoler ikkje lenger på mitt instinkt

   Em         C           Em        C
Så farvel, farvel ønsk meg lykke og hell
     Em            C              Em      C
Tenn lys for meg i kveld, gje min sønn en klem
   Em               C
Og hels fra meg til presten
    Em             C
Sei nå er eg blitt kristen
   Em            C          Em           C
En del av den prosessen tok livet av meg nesten
       Em          C           Em     C
Det eg trur på kan de aldri ta meg ifrå
           Em          C           H7
Det som eg trur på kan de aldri ta meg ifrå

Em  G     Am        Em
For ingen hørte min kommando
Em   D       C       H7
Shalala shalala shalala
Em     G        Am        Em
Og det er ikkje liv i min tango
Em   D       C       H7
Shalala shalala shalala

Såg opp mot himmelen og min redning dalte ner
Som ei fjør, som ei fjør, min redning dalte ner
Såg opp mot himmelen
og min redning blei skutt ner
Som ei fjør, som ei fjør
Min redning blei skutt ner 


Tekst hentet fra drmowinckel.com
            
Submit corrections

comments powered by Disqus
↑ Back to top | Kaizers Orchestra Tabs for Dd Manns Tango. Lyrics for acoustic guitar and electric guitar. Tablatures and chords are parodies/interpretations of the original songs. You may use it for private study, scholarship, research or language learning purposes only