>
 >
170

170 Guitar Tabs

Kaizers Orchestra - 170 chords, tabs, tablatures, lyrics

Guitar lessons | Add/correct | Request | Top 50 tabs Artists:  A B C D E F G H I J K L M N O P Q R S T U V W X Y Z 0-9

170 Guitar Tabs – Kaizers Orchestra

CD, Sheet music, Poster

Do you like 170? Share with your friends now
ChordsTabsTabs v2Ukulele
Kaizers Orchestra  170



Main Riff:
E------------------------------------------------------------|
B------------------------------------------------------------|
G-------7--7-9-10-9-7----------------------------------------|
D----5-7-------------------10-7--7-----------5----------------|
A--8-------------------------------------5-7---8--7-8-7-5--5--|
E--------------------------------------8----------------------|

Riff 2:
E-----------0----------0-----------------0---------0--|
B-------------3----------3-------------3---3-----3----|
G---------2------2---2---------0h2p0-----------2------|
D-----0--0----------0-------------------------0--------|
A0-3-------------------------3-------3----------------|
E------------------------------------------------------|





Comments


Popular Kaizers Orchestra tabs & chords
Din Kjole Lukter Bensin Mor Chords
Drm Videre Violeta Chords
Gruvene Pa 16 Chords
Min Kvite Russer Chords
Tokyo Ice Til Clementine Chords
Fra SjåFøR Til Passasjer Tabs
Ompa Til Du Dr Intro Tabs
SigøYnerblod Tabs
Bak Et Halleluja Ukulele
Resistansen Ukulele


Song lyrics



↑ Back to top | Tablatures and chords are parodies/interpretations of the original songs. You may use it for private study, scholarship, research or language learning purposes only
© 2014 AZChords.com Contact us | Privacy policy | DMCA | Add/correct tabs | Request tabs | Top 50 tabs