» » »

Time Honoured Tradition Tabs (ver.1)

Artists:  A B C D E F G H I J K L M N O P Q R S T U V W X Y Z # 

Time Honoured Tradition Tabs (ver.1)

Kaiser Chiefs
Rating:
0/5 (0 votes)

Hard to play? Try these video lessons and learn fast.
                again another hit from the kaisers

intro and verse
e---------------------------------------------------------------------|
b---------------------------------------------------------------------|
g---------------------------------------------------------------------|
d---------------------------------------------------------------------|
a-11-11--9-9--7-7------9-9-7-7-6-6------11-11-9-9-7-7-6-6---4-4-4-2-4-|
E-9--9---7-7--5-5------7-7-5-5-4-4------9--9--7-7-5-5-4-4---2-2-2-0-2-|

AND THAT IS THE END OF THAT
b----------------------------------------------------------------------|
g-----------------------------4b---------------------------------------|
d----------------------------------------------------------------------|
a-----4-4-4-2-4---4-4-4-2-4--------------------------------------------|
E-----2-2-2-0-2---2-2-2-0-2--------------------------------------------|

chorus/OH OH OH OH bit
b---------------------------------------------------------------------|
g---------------------------------------------------------------------|
d---------------------------------------------------------------------|
a-4-4-7-7-6-6-7-4-2---------------------------------------------------|
E-2-2-5-5-4-4-5-4-0---------------------------------------------------|


then solo

e---------------------------2-2-5-5-4-4-5-4-0--2-2-5-5-4-4-5-4-0-----|
b---------2-2-5-5-4-4-5-4-0--------------------2-2-5-5-4-4-5-4-0-----|
g-4b--4p0------------------------------------------------------------|
d--------------------------------------------------------------------|
a--------------------------------------------------------------------|
E--------------------------------------------------------------------|

then the chorus etc
and thats the end of that
            
Hard to play? Try these video lessons and learn fast. | Correct




comments powered by Disqus
↑ Back to top | Tablatures and chords are parodies/interpretations of the original songs. You may use it for private study, scholarship, research or language learning purposes only