» » »

Kaiser Chiefs, Na Na Na Na Na Tabs (ver.3)

Artists:  A B C D E F G H I J K L M N O P Q R S T U V W X Y Z # 

Na Na Na Na Na Tabs (ver.3)

Kaiser Chiefs Tabs
 Rating:
4/5 (4 votes)
Na Na Na Na Na lessons Tabs too difficult? Try these video lessons and learn fast
                Artist – Kaiser Chiefs
Song – Na na na na na

E|------------------------------------|
B|------------------------------------|
G|----9-9-9-9-9-9-9-9-9---------------|
D|----9-9-9-9-9-9-9-9-9---------------|
A|----7-7-7-7-7-7-7-7-7---------------|
E|------------------------------------|
Na na na na na…………….



E|-------------------------------|
B|-------------------------------|
G|-------------------------------|
D|--9-9-9-9-9-9-9-9--------------|
A|--9-9-9-9-9-9-9-9--------------|
E|--7-7-7-7-7-7-7-7--------------|
It does not get me going…………

Solo
Part 1
E|------------------------------------------|
B|--4-5-7b9-7b9-7b9-7b9---7-5-4-2-0---------|
G|------------------------------------------| x1
D|------------------------------------------|
A|------------------------------------------|
E|------------------------------------------|

Part 2
E|---------------------7----------------------------------------------|
B|--4-5-7-7b9-7b9-7b9----7-5-4-2-0------0-2-5--0-2-5--0-2-5-4p2p0--0--|
G|--------------------------------------------------------------------|
D|--------------------------------------------------------------------|
A|--------------------------------------------------------------------|
E|--------------------------------------------------------------------| x1

Then
Part 1 again
Riffs at top of page.
            
Submit corrections

comments powered by Disqus
↑ Back to top | Kaiser Chiefs Tabs for Na Na Na Na Na. Lyrics for acoustic guitar and electric guitar. Tablatures and chords are parodies/interpretations of the original songs. You may use it for private study, scholarship, research or language learning purposes only