» » »

Kaiser Chiefs, Little Shocks Tabs (ver.3)

Artists:  A B C D E F G H I J K L M N O P Q R S T U V W X Y Z # 

Little Shocks Tabs (ver.3)

Kaiser Chiefs Tabs
 Rating:
4/5 (4 votes)
Little Shocks lessons Tabs too difficult? Try these video lessons and learn fast
1
                -------------------------------------------------------------------------------
                             LITTLE SHOCKS - Kaiser Chiefs
-------------------------------------------------------------------------------

Tuning:EADGBe

Main Riff/Verse:

e|---------------------------------------------------------------------------|
B|---------------------------------------------------------------------------|
G|-----9---8-----------------------------------------------------------------|
D|-------7-------------------------------------------------------------------|
A|-0-0-----------------------------------------------------------------------|
E|---------------------------------------------------------------------------|  
   x x

Chorus: 

Bm then back to main riff

Post Chorus: 

E G Bm A

Solo:

e|---------------------------------------------------------------------------|
B|-8~~~-11-6~~~-11/13~~~-11--------------------------------------------------|
G|--------------------------5p3-----5p3-----5p3------------------------------|
D|------------------------------3-5-----3-5-----3----------------------------|
A|---------------------------------------------------------------------------|
E|---------------------------------------------------------------------------|

e|---------------------------------------------------------------------------|
B|-8~~~-11-6~~~-11/13~~~-11--------------------------------------------------|
G|---------------------------------------------------------------------------|
D|------------------------------3--------------------------------------------|
A|----------------------------5---3------------------------------------------|
E|--------------------------3------------------------------------------------|

Bridge:

e|---------------------------------------------------------------------------|
B|---------------------------------------------------------------------------|
G|---------------------------------------------------------------------------|  Repeat throughout
D|---------------------------------------------------------------------------|
A|---------------------------------------------------------------------------|
E|-0000000000000000000000000-------------------------------------------------|
   xxxxxxxxxxxxxxxxxxxxxxxxx

Final Chorus:

Bm into variated main riff...

e|---------------------------------------------------------------------------|
B|---------------------------------------------------------------------------|
G|---------------------------------------------------------------------------|
D|---------------------------------------------------------------------------|
A|-----7---6b----------------------------------------------------------------|
E|-5-5---5-------------------------------------------------------------------|

Structure:

Main Riff
Verse
Chorus
Post Chorus
Verse
Chorus
Post Chorus
Solo
Bridge
Final Chorus with riff variation
Post Chorus
Main Riff

************************************

| /   slide up
| \   slide down
| h   hammer-on
| p   pull-off
| ~   vibrato
| +   harmonic
| x   Mute note
| b   Bend
| pb  Pre-bend
| br  Bend release
| pbr Pre-bend release
| brb Bend release bend

************************************
            
Submit corrections

comments powered by Disqus
↑ Back to top | Kaiser Chiefs Tabs for Little Shocks. Lyrics for acoustic guitar and electric guitar. 1 Tablatures and chords are parodies/interpretations of the original songs. You may use it for private study, scholarship, research or language learning purposes only