» » »

Like It Too Much Tabs (ver.2)

Artists:  A B C D E F G H I J K L M N O P Q R S T U V W X Y Z # 

Like It Too Much Tabs (ver.2)

Kaiser Chiefs
Rating:
0/5 (0 votes)

Hard to play? Try these video lessons and learn fast.
                I have liked this song for years but have never been satisfied with the tab, so i 
thought i'd do my own.

Tuning: Standard



Verse
             In nights of old...

e|--------------------------------|
B|--------------------------------|
G|--------------------------------|
D|--5--5--5--5--5--5--5--5--5--5--|
A|--5--5--5--5--5--5--5--5--5--5--|
E|--3--3--3--3--3--3--3--3--3--3--|





Going in and out of...

e|--------------------------------|
B|--------------------------------|
G|--------------------------------|
D|--------------------------------|
A|---------3-3-0------------3-3-0-|
E|-1-1-1-1----------1-1-1-1-------|

Guitar 2

B|6-6-6-6-6-6-6-6-6-6-6-6-6-5-3-5-6-6-6-6-6-6-6-6-6-6-6-




Pre-Chorus
           Free...
e|------------------|
B|------------------|
G|-5----------------|
D|-5----------------|
A|-3----------------|
E|------------------|



Chorus

 Cause you are...

e|--3----------------------------------------------|
B|--3--------------------6-------------------------|
G|--4--------------------7-------------------------|
D|--5--------------------7-------------------------|
A|--5-----------2--3--5----------------------------|
E|--3-----3--5-------------------------------------|



Aaaaaaaaaaaaaaaaaaaaaaaaaah

(Not sure about this part)

e|
B|
G|9--|        G|8--|         G|7--|         G|6--|       G|5--|
D|10-|        D|9--|         D|8--|         D|7--|       D|6--|
A|10-| x15    A|9--| x15     A|8--| x15     A|7--| x15   A|6--| x15
E|8--|        E|7--|         E|6--|         E|5--|       E|4--|


G|5-5--5---5-|
D|6-6--6---6-|
A|6-6--6---6-|
E|4-4--4---4-|

Then BAck To Chorus :)
            
Hard to play? Try these video lessons and learn fast. | Correct




comments powered by Disqus
↑ Back to top | Tablatures and chords are parodies/interpretations of the original songs. You may use it for private study, scholarship, research or language learning purposes only