» » »

Learnt My Lesson Well Tabs (ver.1)

Artists:  A B C D E F G H I J K L M N O P Q R S T U V W X Y Z # 

Learnt My Lesson Well Tabs (ver.1)

Kaiser Chiefs
Rating:
5/5 (2 votes)

Hard to play? Try these video lessons and learn fast.
                Learnt My Lesson Well By the Kaiser Chiefs

 I hadn't seen a good tab of this up, or at least a full one, so enjoy. The pattern 

Tuning: Standard

e|--------------------------------------------------------------------------------|
b|--------------------------------------------------------------------------------|
g|--------------------------------------------------------------------------------|
d|----------------------777777-555555-444444-333333-------------------------------|
a|----------------------777777-555555-444444-333333-------------------------------|
e|-/5-3-2-1----5-3-2-1--555555-333333-222222-111111--5-(5)\3-(3)\2-2(2)-\1(1)-----|

e|--------------------------------------------|
b|--------------------------------------------|
g|----7b9~--------------------------------9---|
d|----------------------------------------7---|
a|--------------------------------------------|
e|--------------------------------------------|
   "Im just waiting for, the man to come with all my things..

e|-------------------------------------------------------------------------|
B|-------------------------------------------------------------------------|
G|-------------------------------------------------------------------------|
D|---777777-555555-444444-333333----777777-555555-444444-333333------------|
A|---777777-555555-444444-333333----777777-555555-444444-333333------------|
E|---555555-333333-222222-111111----555555-333333-222222-111111------------|
            ..and its not hard to tell...                           but im just

    Chorus:
e|-------------------------------------------------------------|
B|-------------------------------------------------------------|
G|-----12-12--14-14--12-12--14-14--10-10--10-10---8--8--10-10--|
D|-----10-10--12-12--10-10--12-12---8--8--12-12--10-10--12-12--|--X2
A|-------------------------------------------------------------|
E|-------------------------------------------------------------|
..what are you waiting for?                                   just seven days
e|------------------------------------------------------------------------|
B|------------------------------------------------------------------------|
G|------------------------------------------------------------------------|
D|--777777-555555-444444-333333------777777-555555-444444-333333----------|
A|--777777-555555-444444-333333------777777-555555-444444-333333----------|
E|--555555-333333-222222-111111------555555-333333-222222-111111----------|

e|-----------------------------------|
B|-----------------------------------|
G|-----------------------------------|
D|-----------------------------------|---Go to Chorus, then interlude
A|-----------------------------------|
E|---5-3-2-1--5-3-2-1----------------|

Interlude:
e|-----------------------------------------------------|
B|-----------------------------------------------------|
G|-10-10-10-10-10-10--999999-777777--------------------|x3
D|-10-10-10-10-10-10--999999-777777-777777-------------|
A|--8--8--8--8--8--8--777777-555555-777777-------------|
E|----------------------------------555555-------------|


e|--------------------------------------------------------------------|
B|--------------------------------------------------------------------|
G|-5------------------------------------------------------------------|
D|-5-5---777777777777777777777----7b9p5----7b9p5----------------------|
A|-3-5---777777777777777777777----------7---------7-------------------|
E|---3---555555555555555555555----------------------------------------|

e|--------------------------------------------|
B|--------------------------------------------|
G|-------7b9~---------------------------------|
D|-----------------777777-555555-444444-333333|
A|-----------------777777-555555-444444-333333|---Just follow the pattern then Chorus
E|-----------------555555-333333-222222-111111|

| /  slide up
| \  slide down
| h  hammer-on
| p  pull-off
| ~  vibrato
| +  harmonic
| x  Mute note
===============================================================================
            
Hard to play? Try these video lessons and learn fast. | Correct




comments powered by Disqus
↑ Back to top | Tablatures and chords are parodies/interpretations of the original songs. You may use it for private study, scholarship, research or language learning purposes only