» » »

Kaiser Chiefs, Everything Is Average Nowadays Bass tabs (ver.1)

Artists:  A B C D E F G H I J K L M N O P Q R S T U V W X Y Z # 

Everything Is Average Nowadays Bass tabs (ver.1)

Kaiser Chiefs Tabs
 Rating:
3.7/5 (6 votes)
Everything Is Average Nowadays lessons Tabs too difficult? Try these video lessons and learn fast
                -------------------------------------------------------------------------------
-------------------------------------------------------------------------------


Intro
G|-------------|
D|-------------|
A|-5~----------|
E|-------------|

G|---------------------------------------------------------------------------|
D|----------------------------------------------------------------------44---|
A|-5555555555555555-2222222222222222--5555555555555555-2222222222-44-55------|
E|---------------------------------------------------------------------------|

Pre-Verse x2
G|---------------------------------------------------------------------------|
D|-555555555555-44-55-7777777777-55-44---------------------------------------|
A|-------------------------------------77------------------------------------|
E|---------------------------------------------------------------------------|

Verse
G|---------------------------------------------------------------------------|
D|-------------------------------------------------------------------------44|
A|-555555555555-77-55-222222222222-4444-555555555555-77-55-2222222222-44-55--|
E|---------------------------------------------------------------------------|

Pre-Chorus x2
G|---------------------------------------------------------------------------|
D|-55555555-55-44-55-44-7777777777-55-44-------------------------------------|
A|---------------------------------------77----------------------------------|
E|---------------------------------------------------------------------------|

Chorus Part 1 x1
G|---------------------------------------------------------------------------|
D|---------------------------------------------------------------------------|
A|-355-355-355-355-022-022-022-022-44-55-355-355-355-022-022-022-022-44------|
E|---------------------------------------------------------------------------|

Chorus Part 2 x2
G|---------------------------------------------------------------------------|
D|-55555555-55-44-55-44-7777777777-55-44-------------------------------------|
A|---------------------------------------77----------------------------------|
E|---------------------------------------------------------------------------|

Verse
G|---------------------------------------------------------------------------|
D|-------------------------------------------------------------------------44|
A|-555555555555-77-55-222222222222-4444-555555555555-77-55-2222222222-44-55--|
E|---------------------------------------------------------------------------|

Pre-Chorus x2
G|---------------------------------------------------------------------------|
D|-55555555-55-44-55-44-7777777777-55-44-------------------------------------|
A|---------------------------------------77----------------------------------|
E|---------------------------------------------------------------------------|

Bridge
G|---------------------------------------------------------------------------|
D|---------------------------------------------------------------------------|
A|-2-22-22-/7-77-77----------------------2-2--2-2--2-2--2-2------------------|
E|-------------------5-55-55-3-33-5-55---------------------------------------|

Verse
G|---------------------------------------------------------------------------|
D|-------------------------------------------------------------------------44|
A|-555555555555-77-55-222222222222-4444-555555555555-77-55-2222222222-44-55--|
E|---------------------------------------------------------------------------|

Pre-Chorus x2
G|---------------------------------------------------------------------------|
D|-55555555-55-44-55-44-7777777777-55-44-------------------------------------|
A|---------------------------------------55----------------------------------|
E|---------------------------------------------------------------------------|

Last Chorus x1
G|---------------------------------------------------------------------------|
D|------------------------------------------------------------------66-------|
A|-77-577-577-577-----------------577-577-577-577-------------66-77----------|
E|----------------799-799-799-799-----------------799-799-799----------------|
Outro x2
G|---------------------------------------------------------------------------|
D|-77777777-77-66-77-66-9999999999-77-66-------------------------------------|
A|---------------------------------------99----------------------------------|
E|---------------------------------------------------------------------------|

On the 2nd repeat slow down at the end then...

End On
G|---------------------------------------------------------------------------|
D|-9~------------------------------------------------------------------------|
A|-7~------------------------------------------------------------------------|
E|---------------------------------------------------------------------------|
            
Submit corrections

comments powered by Disqus
↑ Back to top | Kaiser Chiefs Bass for Everything Is Average Nowadays. Lyrics for acoustic guitar and electric guitar. Tablatures and chords are parodies/interpretations of the original songs. You may use it for private study, scholarship, research or language learning purposes only