» » »

My Love Tabs (ver.1)

Artists:  A B C D E F G H I J K L M N O P Q R S T U V W X Y Z # 

My Love Tabs (ver.1)

Justin Timberlake
Rating:
0/5 (0 votes)

Hard to play? Try these video lessons and learn fast.
                (Intro)
Standard Tuning
1.20.07

This tab is based on the Victoria Secret acoustic performance by Justin Timberlake. This 
excludes the chorus where they transition from the acoustic guitar to the real instrumental.

e----------5h7-----------------------------5--3--2--0------------|
B--------------------------5h7-------------------------3---------|
G-------5--------------------------------------------------------|
D----5------------------5---------------7------------------------|
A-7------------------5---------------6---------------------------|
E-----------------7---------------7------------------------------|

e----------------------------------------------------------------|
B----------1------------3----------------------------------------|
G-------0------------5-------------------------------------------|
D----2------------4----------------------------------------------|
A-3------------5-------------------------------------------------|
E----------------------------------------------------------------|
            
Hard to play? Try these video lessons and learn fast. | Correct




comments powered by Disqus
↑ Back to top | Tablatures and chords are parodies/interpretations of the original songs. You may use it for private study, scholarship, research or language learning purposes only